Cifra Club

I Want To Know What Love Is

Wynonna Judd

Cifra: Principal (violão e guitarra)
tom: G
Em          D/F#      G
I gotta take a little time
         C                    Em
A little time to think things over

|-------------------------|
|-------------------------|
|-----0-------------------|
|--0-2--2-----------------|
|-2-----------------------|
|-------------------------|

Em       D/F#             G
I better read between the lines
          C                Em
In case I need it when I'm older

|-------------------------|
|-------------------------|
|-----0-------------------|
|--0-2--2-----------------|
|-2-----------------------|
|-------------------------|

Em9   D/F#            G
This mountain I must climb
            C           Em
Feels like the world's upon my shoulders
Em9      D/F#                  G
Through the clouds I see love shine
            C            Em
It keeps me warm as life grows colder

      Am7          D                  Am7
In my life there's been heartache and pain
Am7              D           Am7
I don't know if I can face it again
Am7               D               Am7
I can't stop now, I've traveled so far
   C   G/B     Am7 G  Dsus
To change this lonely life

(refrão)
G                        D
I want to know what love is
Am7           D
I want you to show me
G                        D
I want to feel what love is
Am7            D
I know you can show me

|--7-11-11-9-9-12---------|
|-------------------------|
|-------------------------|
|-------------------------|
|-------------------------|
|-------------------------|

|-------------------------|
|-------------------------|
|-----0-------------------|
|--0-2--2-----------------|
|-2-----------------------|
|-------------------------|

Em        D/F#          G
I'm gonna take a little time
         C            Em
A little time to look around me
Em       D/F#            G
I've got nowhere left to hide
              C                Em
It looks like love has finally found me
      Am7          D                  Am7
In my life there's been heartache and pain
Am7                  D        Am7
I don't know if I can face it again
Am7             D                Am7
Can't stop now, I've traveled so far
   C    G/B    Am7  G Dsus
To change this lonely life

(refrão 4x)
(base solo 4x) G D Am7 D
00:00 / 00:00
Outros vídeos desta música
Repetir
Outros vídeos desta música
Composição de Mick Jones
Colaboração e revisão:
  • paulo dias
15.676 exibições
    • ½ Tom
    • A
    • Bb
    • B
    • C
    • Db
    • D
    • Eb
    • E
    • F
    • F#
    • G
    • Ab
  • Adicionar à lista

    0 comentários

    Ver todos os comentários

    Entre para oCifra Club PRO

    Tenha acesso a benefícios exclusivos no App e no Site

    • Chega de anúncios

    • Prioridade de compra em lançamentos

    • Mais recursos no app do Afinador

    • Atendimento Prioritário

    • Descontos nos produtos Cifra Club

    • Ajude a produzir mais conteúdo

    00:00 / 00:00

    Cifra Club Pro

    Aproveite o Cifra Club com benefícios exclusivos e sem anúncios
    Cifra Club Pro
    Aproveite o Cifra Club com benefícios exclusivos e sem anúncios
    OK