Cifra Club

Eu Vou Fazer Um Barulho

Judson Oliveira

Cifra: Principal (violão e guitarra)
Selo Cifra Club: esta cifra foi revisada para atender aos critérios oficiais da nossa Equipe de Qualidade.
tom: G
Intro: E

G|--7h9-7-9-9-7-9-----------------|
D|-----------------5h7-5-7-7-5-7--|

G|--7\9-9-99---12-12-12-12--------|
D|--x---x-xx----------------------| 2x
A|--5\7-7-77---10-10-10-10--------|

Morre em Em deixa Soar

 Em                                                   G |-----8----|
 Eu vou fazer um Barulho pra essa cidade ouvir        D |-------5--|
Em                                                    A |--7-------|
Eu vou fazer um barulho pra essa cidade saber

Em                      G   D                       C9
Que Jesus é o Senhor      Que Jesus é o Senhor       2X

G|--7\9-9-99---12-12-12-12--------|
D|--x---x-xx----------------------| 2x
A|--5\7-7-77---10-10-10-10--------|

E|--------------------------------7----9----12-7-9---------------15----17------|
B|----8-7------------8-7------------8----10--------8----------14----15----17^--|
G|--9-----7--6-----9-----7-6-------------------------7\9-9\12------------------|
D|--------------7------------7-------------------------------------------------|

Em
Eu vou fazer um Barulho pra essa cidade ouvir
Em
Eu vou fazer um barulho pra essa cidade saber

        Em                 G
Que Jesus é o Senhor (Jesus é o Senhor) 2º voz
        A                  C9                          4x
Que Jesus é o Senhor (Jesus é o Senhor) 2º voz
                                                                                                        

B|------------------------------8-7-8--8-7----8-7-8--|
G|--9-7-9--9-7---9-7-9--9-7----------------7---------|
D|-------------9------------9------------------------|
Em
Tira o pé do chão grite o nome dele deixe a cidade saber

 ROCK:  G |----x-9-x-7-x--------|
        D |--2-x-9-x-7-x--------|
        A |--2-x-7-x-5-x-2-7-5--|
        E |--0-x---x---x-0------|

Em
Eu vou fazer um Barulho pra essa cidade ouvir
Em
Eu vou fazer um barulho pra essa cidade saber

Em (deixa Soar)
E se preciso for vou me vestir de palhaço eu não tô nem aí  2x
Em (deixa Soar)
Deixe a cidade saber (Jesus) 2ºvoz   8x

A|--9999999-7-7\99999-12-12-12-11-11-11--|
D|--xxxxxxx-x-xxxxxxx--x--x--x-x--x--x---|
G|--7777777-5-5\77777-10-10-10-9--9--9---|

Em - G - A - C9
00:00 / 00:00
Outros vídeos desta música
Repetir
Outros vídeos desta música
1.462 exibições
    • ½ Tom
    • A
    • Bb
    • B
    • C
    • Db
    • D
    • Eb
    • E
    • F
    • F#
    • G
    • Ab
  • Adicionar à lista

Afinação da cifra

Afinador online

    0 comentários

    Ver todos os comentários

    Entre para o Cifra Club PRO

    Tenha acesso a benefícios exclusivos no App e no Site

    • Chega de anúncios

    • Mais recursos no app do Afinador

    • Atendimento Prioritário

    • Aumente seu limite de lista

    • Ajude a produzir mais conteúdo

    00:00 / 00:00

    Cifra Club Pro

    Aproveite o Cifra Club com benefícios exclusivos e sem anúncios
    Cifra Club Pro
    Aproveite o Cifra Club com benefícios exclusivos e sem anúncios
    OK