Cifra Club

Nuestro Juramento

Julio Jaramillo

Cifra: Principal (violão e guitarra)
Tom: Bm (forma dos acordes no tom de Am) Capotraste na 2ª casa
[Intro] Dm  Am  E  Am
        Dm  Am  E  Am

E|-----7-10-13-12h13p12---------------------|
B|---9------------------13-10-10------------|
G|-9----------------------------------------|
D|------------------------------------------|
A|------------------------------------------|
E|------------------------------------------|

E|------------------7-7-7-7-10-13-12h13p12--|
B|----------9-9-9-9-------------------------|
G|-9-9-9-9----------------------------------|
D|------------------------------------------|
A|------------------------------------------|
E|------------------------------------------|

E|----------13----------15------------------|
B|-13-10-10----15-15-15----15-15-15---------|
G|------------------------------------------|
D|------------------------------------------|
A|------------------------------------------|
E|------------------------------------------|

E|-13----------15---------------------------|
B|----15-15-15----15-15-15-15---------------|
G|------------------------------------------|
D|------------------------------------------|
A|------------------------------------------|
E|------------------------------------------|

E|-12----------13---------------------------|
B|----13-13-13----13-13-13------------------|
G|------------------------------------------|
D|------------------------------------------|
A|------------------------------------------|
E|------------------------------------------|

E|-12----------13---------------------------|
B|----13-13-13----13-13-13------------------|
G|------------------------------------------|
D|------------------------------------------|
A|------------------------------------------|
E|------------------------------------------|

E|-10----------12---------------------------|
B|----12-12-12----12-12-12------------------|
G|------------------------------------------|
D|------------------------------------------|
A|------------------------------------------|
E|------------------------------------------|

E|-10----------12---------------------------|
B|----12-12-12----12-12-12--10--------------|
G|------------------------------------------|
D|------------------------------------------|
A|------------------------------------------|
E|------------------------------------------|

[Primeira Parte]
  
 Am                              Dm   
No puedo verte triste porque me mata  
 E                            Am     
Tu carita de pena, mi dulce amor 
 C                  G7              C      
Me duele tanto el llanto que tu derramas  
  Dm               F             E    
Que se llena de angustia mi corazon 
 
 Am                             Dm           
Yo sufro lo indecible si tu entristeces 
 E                                A   A7 
No quiero que la duda te haga llorar 
                                 Dm    
Hermos jurado amarnos hasta la muerte  
Am                 
Y si los muertos aman  
             E              Am     
Despues de muertos amarnos mas

[Segunda Parte]
  
 G                             C    
Si yo muero primero, es tu promesa  
 G                         C      
Sobre de mi cadaver dejar caer  
 A7                                 Dm  
Todo el llanto que brote de tu tristeza  
G                              C    
Y que todos se enteren de tu querer 

[Refrão]
  
 G                              C     
Si tu mueres primero, yo te prometo  
E                                  A   A7 
Escribire la historia de nuestro amor  
                                 Dm       
Con toda el alma llena de sentimiento  
 Am                
La escribire con sangre  
           E               Am    
Con tinta sangre del corazon    
 
[Solo] Dm  Am  E  Am
       Dm  Am  E  Am

E|-----7-10-13-12h13p12---------------------|
B|---9------------------13-10-10------------|
G|-9----------------------------------------|
D|------------------------------------------|
A|------------------------------------------|
E|------------------------------------------|

E|------------------7-7-7-7-10-13-12h13p12--|
B|----------9-9-9-9-------------------------|
G|-9-9-9-9----------------------------------|
D|------------------------------------------|
A|------------------------------------------|
E|------------------------------------------|

E|----------13----------15------------------|
B|-13-10-10----15-15-15----15-15-15---------|
G|------------------------------------------|
D|------------------------------------------|
A|------------------------------------------|
E|------------------------------------------|

E|-13----------15---------------------------|
B|----15-15-15----15-15-15-15---------------|
G|------------------------------------------|
D|------------------------------------------|
A|------------------------------------------|
E|------------------------------------------|

E|-12----------13---------------------------|
B|----13-13-13----13-13-13------------------|
G|------------------------------------------|
D|------------------------------------------|
A|------------------------------------------|
E|------------------------------------------|

E|-12----------13---------------------------|
B|----13-13-13----13-13-13------------------|
G|------------------------------------------|
D|------------------------------------------|
A|------------------------------------------|
E|------------------------------------------|

E|-10----------12---------------------------|
B|----12-12-12----12-12-12------------------|
G|------------------------------------------|
D|------------------------------------------|
A|------------------------------------------|
E|------------------------------------------|

E|-10----------12---------------------------|
B|----12-12-12----12-12-12--10--------------|
G|------------------------------------------|
D|------------------------------------------|
A|------------------------------------------|
E|------------------------------------------|

[Refrão]
 
G                               C     
Si tu mueres primero, yo te prometo  
E                                  A   A7 
Escribire la historia de nuestro amor  
                                 Dm       
Con toda el alma llena de sentimiento  
 Am                
La escribire con sangre  
           E              Am    
Con tinta sangre del corazon
exibições 22.860
Acordes para:
    Composição: Benito de Jesús Colaboração e revisão:
    • Thiago Almeida

    0 comentários

    mostrar mais comentários

    Conseguiu tocar?

    1 tocaram 0 ainda não

    Grave um vídeo tocando Nuestro Juramento e mande pra gente!

    00:00 / 00:00
    outros vídeos desta música
    repetir qualidade Automático
    Outros vídeos desta música
    00:00 / 00:00
    Automático
    OK