Cifra Club

Nuestro Juramento

Julio Jaramillo

Cifra: Principal (violão e guitarra)
exibições 19.782
Tom: C
Intro: 
 
e|---7-10---13-12------------|----------------7-7-7--------| 
B|--9-------------13--10--10-|----------9-9-9--------------| 
G|-9-------------------------|----9-9-9--------------------| 
D|---------------------------|-----------------------------| 
A|---------------------------|-----------------------------| 
E|---------------------------|-----------------------------| 
 
e|-13-12------------|-13------------15------------| 
B|-------13--10--10-|----15-15-15------15-15-15---| 
G|------------------|-----------------------------| 
D|------------------|-----------------------------| 
A|------------------|------------(2 VECES)--------| 
E|------------------|-----------------------------| 
 
 
e|--12-----------13----------|-10-----------10-------------|---10--- 
B|-----13-13-13-----13-13-13-|----12-12-12-----12-12-12----|----8--- 
G|---------------------------|-----------------------------|-------- 
D|---------------------------|-----------------------------|-------- 
A|---------(2 VECES)---------|-------------(2 VECES)-------|-------- 
E|---------------------------|-----------------------------|-------- 
 
 
e|--0--1--0-----------------5--| 
B|---------3--1--0--------5----| 
G|------------------2---5------| 
D|-----------------------------| 
A|-----------------------------| 
E|-----------------------------| 
 
 
Am             Am               Dm   Dm 
No puedo verte triste porque me mata 
 
Em           Em             Am     Am 
tu carita de pena, mi dulce amor, 
 
C                 G7               C      C 
me duele tanto el llanto que tu derramas 
 
Dm                 F             E    *(E|---0--2--4----) 
que se llena de angustia mi corazon. 
 
 
Am               Am                Dm    Dm       
Yo sufro lo indecible si tu entristeces, 
 
E                E                A   A7 
no quiero que la duda te haga llorar, 
 
A7              A7               Dm   Dm 
hermos jurado amarnos hasta la muerte 
 
Am                Am 
y si los muertos aman, 
 
           E               Am    *(E|---0--1--2--) 
despues de muertos amarnos mas. 
 
 
G               G               C    C 
Si yo muero primero, es tu promesa, 
 
G              G          C     *(A|--3--2--1) 
sobre de mi cadaver dejar caer 
 
A7                 A7              Dm   Dm 
todo el llanto que brote de tu tristeza 
 
G              G                C    *(E|--0--1--2--) 
y que todos se enteren de tu querer. 
 
 
G                G              C    C 
Si tu mueres primero, yo te prometo, 
 
E                E                 A   A7 
escribire la historia de nuestro amor 
 
A7               A7            Dm      Dm 
con toda el alma llena de sentimiento 
 
Am               Am 
la escribire con sangre, 
 
          E                Am   (Am Am Am) 
con tinta sangre del corazon.    
 
Intro 
 
G               G               C    C 
Si yo muero primero, es tu promesa, 
 
G              G          C     *(A|--3--2--1) 
sobre de mi cadaver dejar caer 
 
A7                 A7              Dm   Dm 
todo el llanto que brote de tu tristeza 
 
G              G                C    *(E|--0--1--2--) 
y que todos se enteren de tu querer. 
 
 
G                G              C    C 
Si tu mueres primero, yo te prometo, 
 
E                E                 A   A7 
escribire la historia de nuestro amor 
 
A7               A7            Dm      Dm 
con toda el alma llena de sentimiento 
 
Am               Am 
la escribire con sangre, 
 
          E                Am  ( E   Am    3E Am  )  
con tinta sangre del corazon.     
 
El rasgado es como el de un bolero. Lo que esta en parentesis no va  
rasgado. 
 
ACORDES: 
   Am    Dm   E    C    G7    F    A    A7 
e|--0-----1----0----0----3-----1----0----0------| 
B|--1-----3----0----1----3-----1----2----2------| 
G|--2-----2----1----0----4-----2----2----0------| 
D|--2-----0----2----2----3-----3----2----2------| 
A|--0-----0----2----3----5-----3----0----0------| 
E|--0-----0----0----0----3-----1----0----0------| 
 
RASGADO (COMO BOLERO): 
e|-----|-^-|------|--------|---------------------| 
B|-----|-|-|------|--------|---------------------| 
G|-----`-|-`------`--------`---------------------| 
D|--------------------b2-------------------------| 
A|---b---------b1--------------------------------| 
E|-----------------------------------------------| 
 
Ejemplo con: 
 
  Am 
e|---0-|-^-|------|------|---| 
B|---1-|-|-|------|------|---| 
G|---2-`-|-`------`------`---| 
D|--------------------2------| 
A|-0------------3------------| 
E|---------------------------| 
 
  Dm 
e|---1-|-^-|------|------|---| 
B|---3-|-|-|------|------|---| 
G|---2-`-|-`------`---2--`---| 
D|-0-----------3-------------| 
A|---------------------------| 
E|---------------------------| 
 
Acordes para:
    Composição: Benito de Jesús

    0 comentários

    mostrar mais comentários

    Conseguiu tocar?

    1 tocaram 0 ainda não

    Grave um vídeo tocando Nuestro Juramento e mande pra gente!

    00:00 / 00:00
    outros vídeos desta música
    repetir qualidade Automático
    Outros vídeos desta música
    00:00 / 00:00
    Automático
    OK