Cifra Club

Unbroken

Killswitch Engage

Tab de baixo: Principal

Tabbed By : Chris Voysey
e-mail: *


Tuning: Drop C   ( C G C F )

Intro/Verse
F|---------------------------------------------------------------------------|
C|---------------------5-----------------------------------------------------|
G|-5--6--5-------5--3-----3--5--6--5-------5--3~-----------------------------|
C|--00-00-00-5-00-00-00-00-00-00-00-00-5-00-00------0-0-0--0--0--------------|

Verse Pt.2
F|---------------------------------------------------------------------------|
C|----------------------------------------------------------3~---------------|
G|---------------------------------------------------1~-0~-----3--5~---------|
C|-0-00-00-00-00---0-00-00-00-00---0-00-00-00-00-----------------------------|

Chorus (slide from 12 only played once whole song)
F|---------------------------------------------------------------------------|
C|---------------------------------------------------------------------------|
G|------3/5-5-5-5-5--------------3/5-5-5-5-5---------------------------------|
C|12\--------------0-0-0-0-0-0--------------0-0-0-0-0--8-8-8-8--10-10-10-10--|

Bridge
F|---------------------------------------------------------------------------|
C|---------------------------------------------------------------------------|
G|-----------------------------------5-5-5-5-5-5-5-5--3-3-3-3-3-3-3-3--------|
C|-7-7-7-7-7-7-7-7--8-8-8-8-8-8-8-8------------------------------------------|

Interlude
F|---------------------------------------------------------------------------|
C|---------------------------------------------------------------------------|
G|--------6p5h6--------3/5-6p5\----------------------------------------------|
C|-0~--00-------0-0-0------------0-0-8p7-8-0-0-0-1h3/4-0~--------------------|

Outro
F|---------------------------------------------------------------------------|
C|---------------------------------------------------------------------------|
G|---------------------------------------------------------------------------|
C|--0-0-0-0-0-0--1-1-1-1-1-1--1h3/4------------------------------------------|


Song Order:
-----------
Intro/Verse x2
Verse Pt.2 x2
Intro/Verse x2
Chorus x4
Intro/Verse x2
Verse Pt.2 x2
Chorus x4
Bridge x4
Interlude x4
Outro x4


| /  slide up
| \  slide down
| h  hammer-on
| p  pull-off
| ~  vibrato
| +  harmonic
| x  Mute note
============================================================================
00:00 / 00:00
Outros vídeos desta música
Repetir
Outros vídeos desta música
Composição de Killswitch Engage
420 exibições

0 comentários

Ver todos os comentários

Entre para oCifra Club PRO

Tenha acesso a benefícios exclusivos no App e no Site

  • Chega de anúncios

  • Prioridade de compra em lançamentos

  • Mais recursos no app do Afinador

  • Atendimento Prioritário

  • Descontos nos produtos Cifra Club

  • Ajude a produzir mais conteúdo

00:00 / 00:00

Cifra Club Pro

Aproveite o Cifra Club com benefícios exclusivos e sem anúncios
Cifra Club Pro
Aproveite o Cifra Club com benefícios exclusivos e sem anúncios
OK