Cifra Club

I Dont Know What I Can Save You From Intro

Kings Of Convenience

Cifra: Principal (violão e guitarra)
tom: Bb
INTRO:

e|-----------------------|--------------------|
H|---------------8-6-----|------------8-6-----|
G|--------8----8-----8-7-|-----5----8-----8-7-|
D|---5--8----------------|-5-8----------------|
A|-6---------------------|--------------------|
E|-----------------------|--------------------|

e|--------------------|--------------------|
H|------------6-------|-----------6--------|
G|-----5----7---8-7---|-5---5-8-9---8------|
D|-5-8--------------8-|--------------------|
A|--------------------|--------------------|
E|--------------------|--------------------|
00:00 / 00:00
Outros vídeos desta música
Repetir
Outros vídeos desta música
Composição de Kings of Convenience
Colaboração e revisão:
  • Thiago Sampaio
1.978 exibições
    • ½ Tom
    • A
    • Bb
    • B
    • C
    • Db
    • D
    • Eb
    • E
    • F
    • F#
    • G
    • Ab
  • Adicionar à lista

    0 comentários

    Ver todos os comentários

    Conseguiu tocar?

    0 Tocaram 0 Ainda não

    Grave um vídeo tocando I Dont Know What I Can Save You From Intro e nos envie!

    Entre para oCifra Club PRO

    Tenha acesso a benefícios exclusivos no App e no Site

    • Chega de anúncios

    • Prioridade de compra em lançamentos

    • Mais recursos no app do Afinador

    • Atendimento Prioritário

    • Descontos nos produtos Cifra Club

    • Ajude a produzir mais conteúdo

    00:00 / 00:00

    Cifra Club Pro

    Aproveite o Cifra Club com benefícios exclusivos e sem anúncios
    Cifra Club Pro
    Aproveite o Cifra Club com benefícios exclusivos e sem anúncios
    OK