Cifra Club

Aprenda

Molly`s Chambers

Kings Of Leon

Cifra: Versão 4 (violão e guitarra)
Já pensou em usar uma coleção de roupas do Cifra Club? Responda as perguntas abaixo e nos ajude nessa missão! →
tom: B
Tabbed by:Nath
email:*
This is the first whole song tab i've done on my own. Rate it PLEASE! be nice

Intro & verse (Guitar 1 and 2)
e--------------------------------------------------------|
B--------------------------------------------------------|
G-3------------------------------------------------------|
D-4--4-4-4-4-4-4--4-4-4-4-4-4--4-4-4-4-4-4--4-4-4-4-4----|X6
A-4--4-4-4-4-4-4--4-4-4-4-4-4--4-4-4-4-4-4--4-4-4-4-4----|
E-2--0-2-0-2-0-2--0-2-0-2-0-2--0-2-0-2-0-2--0-2-0-2-0----|

Choros
e----------------------------------------------------------------------------|
B----------------------------------------------------------------------------|
G----------------------------------------------------------------------------|
D-9--9--9-9-9-9-7--7--7-7-7-7-4--4-4-4-4-4-4--4-4-4-4-4-9--9--9-9-9-9-12--12-|
A-9--9--9-9-9-9-7--7--7-7-7-7-4--4-4-4-4-4-4--4-4-4-4-4-9--9--9-9-9-9-12--12-|
E-7--7--7-7-7-7-5--5--5-5-5-5-2--0-2-0-2-0-2--0-2-0-2-0-7--7--7-7-7-7-10--10-|

e----------------------------------------------------------------------------|
B----------------------------------------------------------------------------|
G----------------------------------------------------------------------------|
D-12-12-12-12----------------------------------------------------------------|
A-12-12-12-12----------------------------------------------------------------|
E-10-10-10-10----------------------------------------------------------------|
Verse (Guitar 1)
e------------------------------------------------------|
B------------------------------------------------------|
G------------------------------------------------------|
D-4--4-4-4-4-4-4--4-4-4-4-4-4--4-4-4-4-4-4--4-4-4-4-4--|X5
A-4--4-4-4-4-4-4--4-4-4-4-4-4--4-4-4-4-4-4--4-4-4-4-4--|
E-2--0-2-0-2-0-2--0-2-0-2-0-2--0-2-0-2-0-2--0-2-0-2-0--|

Guitar 2
e---------------------------------------------------------|
B-------------7------5--7--5--7--5---7--------------------|
G-------------6------6--6--6--6--6---6--------------------|X5
D---------------------------------------------------------|
A---------------------------------------------------------|
E---------------------------------------------------------|

Play the chorus again

Solo
e-12b14-12b14-12b14-12b14--12b14p12-9-----------------------12------12-------|
B--------------------------------------12b14p12-10-10-10-12-13b14-14---------|
G----------------------------------------------------------------------------|
D----------------------------------------------------------------------------|
A----------------------------------------------------------------------------|
E----------------------------------------------------------------------------|

e-12----------12-------------------------------------------------------------|
B-13b14p13----13b14-4/----------4/----------4/-4/-2---2-4-4/-4/-4-4-4-4--4---|
G----------14-------4/-\2---2-4-4/-\2---2-4-4/-4/---4-----4/-4/-4-4-4-4--4---|
D-------------------------4-----------4--------------------------------------|
A----------------------------------------------------------------------------|
E----------------------------------------------------------------------------|

play the chorus till the end
Composição de Caleb Followill / Nathan Followill
2.497 exibições
    • ½ Tom
    • A
    • Bb
    • B
    • C
    • Db
    • D
    • Eb
    • E
    • F
    • F#
    • G
    • Ab
  • Adicionar à lista

    0 comentários

    Ver todos os comentários

    Conseguiu tocar?

    0 Tocaram 0 Ainda não

    Grave um vídeo tocando Molly`s Chambers e nos envie!

    00:00 / 00:00
    Outros vídeos desta música
    Repetir Qualidade Automático
    Outros vídeos desta música
    00:00 / 00:00
    Automático

    Cifra Club Pro

    Aproveite o Cifra Club com benefícios exclusivos e sem anúncios
    Cifra Club Pro
    Aproveite o Cifra Club com benefícios exclusivos e sem anúncios
    OK