Cifra Club

Sex On Fire

Kings Of Leon

Cifra: Principal
exibições 273.672
Tom: E
Introdução: E  C#m

(Guitarra 1)


E|-----------------------------------------------------|
B|-----------------------------------------------------|
G|-----------------------------------------------------|
D|---11p9---9---9---9---11p9---9---9---9---------------|
A|-7------7-----------7------7-------------------------|
E|-0------------------0--------------------------------|


E|-----------------------------------------------------|
B|-----------------------------------------------------|
G|-----------------------------------------------------|
D|---6p4---6---6---6---6p4---6---6---6-----------------|
A|-4-----4-----------4-----4---------------------------|
E|-----------------------------------------------------|



Primeira Parte:

                  E
Lay where you're laying

Don't make a sound
                C#m
I know they're watching

They're watching

(Riff 1)


E|-----------------------------------------------------|
B|-------4---------------------------------------------|
G|-----------------------------------------------------|
D|-6---6-----7-6-4-------------------------------------|
A|---4-------------------------------------------------|
E|-----------------------------------------------------|


              E
All the commotion

The kiddie-like play
            C#m
Has people talking

Talking


Primeiro Refrão:

 E
You
                C#m  A
Your sex is on fire

(Riff do Refrão)


E|---0---0---0-0-0-----7---7---7-7---------------------|
B|-5---5---5---5-5/--9---9---9---9/--------------------|
G|-----------------------------------------------------|
D|-----------------------------------------------------|
A|-----------------------------------------------------|
E|-----------------------------------------------------|


E|----11----11----11--------7---7---7-7----------------|
B|-12----12----12----12\--9---9---9---9/---------------|
G|-----------------------------------------------------|
D|-----------------------------------------------------|
A|-----------------------------------------------------|
E|-----------------------------------------------------|


E|-11-----11------11----11-----11------0---------------|
B|-14b16--14b16r--14~~--14b16--14b16r--9---------------|
G|-----------------------------------------------------|
D|-----------------------------------------------------|
A|-----------------------------------------------------|
E|-----------------------------------------------------|



Segunda Parte:

                E
The dark of the alley

The breaking of the day
                     C#m
The head while I'm driving

I'm driving

              E
Soft lips are open

Them nuckles are pale
                   C#m
Feels like you're dying

You're dying


Segundo Refrão:

 E
You
                C#m  A
Your sex is on fire
    E
Consumed
                       C#m  A
With what's just transpired


Terceira Parte:

(Riff 2)


E|-----------------------------------------------------|
B|-9-9----9-9----9-9----9-9--7-7-----------------------|
G|-9-9----9-9----9-9----9-9--8-8-----------------------|
D|-9-9----9-9----9-9----9-9--9-9-----------------------|
A|-----------------------------------------------------|
E|-----------------------------------------------------|


          E
Hot as a fever

Rattling bones
              C#m
I could just taste it

Taste it

               E
If it's not forever

If it's just tonight
                   C#m
Oh, it still the greatest
      A
The greatest, the greatest


Terceiro Refrão:

 E
You
                C#m  A
Your sex is on fire

(Riff 3)


E|-----------------------------------------------------|
B|-9--9----9--9----9--9----9--9--14--14----------------|
G|-----------------------------------------------------|
D|-6--6----6--6----6--6----6--6--11--11----------------|
A|-----------------------------------------------------|
E|-----------------------------------------------------|


E|-11-----11------11----11-----11------0---------------|
B|-14b16--14b16r--14~~--14b16--14b16r--9---------------|
G|-----------------------------------------------------|
D|-----------------------------------------------------|
A|-----------------------------------------------------|
E|-----------------------------------------------------|


E|---0---0---0-0-0-----7---7---7-7---------------------|
B|-5---5---5---5-5/--9---9---9---9/--------------------|
G|-----------------------------------------------------|
D|-----------------------------------------------------|
A|-----------------------------------------------------|
E|-----------------------------------------------------|


E|----11----11----11--------7---7---7-7----------------|
B|-12----12----12----12\--9---9---9---9/---------------|
G|-----------------------------------------------------|
D|-----------------------------------------------------|
A|-----------------------------------------------------|
E|-----------------------------------------------------|


E|-11-----11------11----11-----11------0---------------|
B|-14b16--14b16r--14~~--14b16--14b16r--9---------------|
G|-----------------------------------------------------|
D|-----------------------------------------------------|
A|-----------------------------------------------------|
E|-----------------------------------------------------|


 E
You
                C#m
Your sex is on fire
    E
Consumed
                       C#m  A
With what's just transpired

     E
And you
                C#m  A
Your sex is on fire
    C
Consumed
                       C#m  A  E
With what's just transpired
Acordes para:

    0 comentários

      mostrar mais comentários

      Conseguiu tocar?

      42tocaram1ainda não

      Grave um vídeo tocando Sex On Fire e mande pra gente!

      00:00 / 00:00
      outros vídeos desta música
      repetirqualidadeautomática
      Outro vídeos desta música
        00:00 / 00:00
        automática
        Capítulos
        • Tocando a música
        • Dicas Iniciais / Equipamentos
        • Tocando a Introdução
        • Introdução - Riff Principal
        • Ritmo da Introdução
        • Tocando a Primeira Parte
        • Primeira Parte - Riff 1
        • Tocando o Primeiro Refrão
        • Riff do Refrão
        • Base do Refrão
        • Tocando a Segunda Parte e Terceira Parte
        • Terceira Parte - Riff 2
        • Tocando o Terceiro Refrão
        • Terceiro Refrão - Riff 3
        • Encerramento
        • Ficha Técnica
        OK