Notificações Amigos pendentes

      Snow Patrol

      Chasing Cars

      138.904 exibições
      Tom: A
      Intro.: A5 (ver embaixo)
      
      A5              E5      D5            A5 
      We'll do it all, everything, on our own. 
      A5         E5       D5         A5 
      We don't need anything, or anyone. 
       
          A5                  E5 
      If I lay here, if I just lay here 
                      D5                          A5 
      Would you lie with me, and just forget the world. 
       
      A5              E5         D5            A5 
      I don't quite know how to say how I feel 
      A5              E5              D5              A5 
      Those three words, I said too much, but not enough. 
       
      A5                      E5 
      If I lay here, if I just lay here 
                 D5                           A5 
      Would you lie with me, and just forget the world. 
      A5                                      E5 
      Forget what we're told, before we get too old 
                 D5                           A5 
      Show me a garden that's bursting into life. 
       
      A5              E5          D5               A5 
      Let's waste time, chasing cars, around our heads. 
      A5              E5          D5              A5
      I need your grace to remind me, to find my own. 
       
      A5                      E5 
      If I lay here, if I just lay here 
                      D5                         A5 
      Would you lie with me, and just forget the world. 
      A5                                      E5 
      Forget what we're told, before we get too old 
                 D5                           A5 
      Show me a garden that's bursting into life. 
       
      A5                      E5 
      All that I am, all that I ever was  
                              D5                      A5 
      Is here in your perfect eyes, they're all I can see 
      A5                                 E5 
      I don't know where, confused about how as well 
                              D5                              A5 
      just know that these things will never change for us at all. 
       
      A5                      E5 
      If I lay here, if I just lay here 
                      D5                      A5 
      Would you lie with me, and just forget the world.  
      
      Intro/Verse: 
      
      e|------------------------------------------------------------------| 
      B|------------------------------------------------------------------| 
      G|--9-9-9-9-9-9-9-9-9-9-9-9-9-9-9-9-9-9-9-9-9-9-9-9-9-9-9-9-9-9-9-9-| 
      D|-7-7-7-7-7-7-7-7-7-7-7-7-7-7-7-7-6-6-6-6-6-6-6-6-0-0-0-0-0-0-0-0--| 
      A|------------------------------------------------------------------| 
      E|------------------------------------------------------------------|
       
       
      Chorus: 
      
      e|----------------------------------------------------------------------------| 
      B|----------------------------------------------------------------------------| 
      G|--------------------------------------7-7-7-7-7-7-7-7-7---------------------| 
      D|-7-7-7-7-7-7-7-7-7--6-6-6-6-6-6-6-6-6-7-7-7-7-7-7-7-7-7--7-7-7-7-7-7-7-7-7--| 
      A|-7-7-7-7-7-7-7-7-7--7-7-7-7-7-7-7-7-7-5-5-5-5-5-5-5-5-5--7-7-7-7-7-7-7-7-7--| 
      E|-5-5-5-5-5-5-5-5-5--4-4-4-4-4-4-4-4-4--------------------5-5-5-5-5-5-5-5-5--| 
      
       
      Piano bit: 
      
      e|--9---------9---------9----------| 
      B|----9--10-----9--9/7-----9--10---| 
      G|---------------------------------| 
      D|---------------------------------| 
      A|---------------------------------| 
      E|---------------------------------| 
      
       
      Chorus Riff 1: 
      
      e|----------------------------------------------------------------------------------------| 
      B|-10-10-10-10-10-10-10-10-10-10-10-10-10-10-10-10-10-10-10-10-10-10-10-10-10-10-10-10-10-| 
      G|-9--9--9--9--9--9--9--9--9--9--9--9--9--9--9--9--9--9--9--9--9--9--9--9--9--9--9--9--9--| 
      D|-7--7--7--7--7--7--7--7--7--7--7--7--7--6--6--6--6--6--6--6--6--0--0--0--0--0--0--0--0--| 
      A|----------------------------------------------------------------------------------------| 
      E|----------------------------------------------------------------------------------------| 
      
       
      End Of Chorus Riff: 
      
      e|---------------------------------------------| 
      B|---------------------------------------------| 
      G|---------------------------------------------| 
      D|--7-7-7-7--9-9-9-9-11-11-11-11-11-11-11-11---| 
      A|--x-x-x-x--x-x-x-x--x--x--x--x--x--x--x--x---| 
      E|--5-5-5-5--7-7-7-7--9--9--9--9--9--9--9--9---| 
      
       
      Outro: 
      
      e|------------------------------------------------------------------| 
      B|------------------------------------------------------------------| 
      G|--9-9-9-9-9-9-9-9-9-9-9-9-9-9-9-9-9-9-9-9-9-9-9-9-9-9-9-9-9-9-9-9-| 
      D|-7-7-7-7-7-7-7-7-7-7-7-7-7-7-7-7-6-6-6-6-6-6-6-6-0-0-0-0-0-0-0-0--| 
      A|------------------------------------------------------------------| 
      E|------------------------------------------------------------------|
      
        Composição: Gary Lightbody / Jonny Quinn / Nathan Connolly / Tom SimpsonColaboração e revisão:
        • Anna Gabriella
        • Alex

        Comentários 11

        140 .
        • dedessa dedessa: Em 23/07/2014 17:10

          acho que tá errado, toquei com os acordes simples (sem o 5) e deu muito mais certo

        • Lucas Lucas: Em 05/09/2013 22:04

          isso ta certo? credo

        • piber piber: Em 24/11/2012 16:20

          E o ritmo?

        • xf xf: Em 06/07/2012 14:27

          ritmo??

          • mahryyyyy mahryyyyy: Em 11/12/2012 13:46

            a melhor maneira para se pegar o ritmo é tentar tocar a musica escutando ela juntamente... o ritmo fica complicado explicar.....

          • anysmile anysmile: Em 04/10/2013 15:55

            só tocar 16x pra baixo em cada nota :D dps aumenta a força gradativamente. eu toco assim e fica bom :)

        • jprez jprez: Em 03/06/2012 19:55

          ela realmente é fácil e sua letra é linda além de uma melodia incrível

        • senna27 senna27: Em 28/01/2012 17:32

          essa música é mto fácil e tbem é muito bonita

        • showbrina showbrina: Em 12/12/2011 15:45

          Faciinho

        140 cancelar

        conseguiu tocar?

        • •••

        covers

        Grave um vídeo tocando Chasing Cars e mande pra gente!

        Ex.: http://www.youtube.com/watch?v=0IvSvIwGdwk
        ver covers de outras músicas »
        0:00 / 0:00

        Capítulos

          1 versão de baixo exibições contribuição e correção
          play/pausefechar subir/descer velocidade
          6ª corda E5ª corda A4ª corda D3ª corda G2ª corda B1ª corda E
            acordes
            publicidade
            fechar
            ok