Cifra Club

Notion

Kings Of Leon

Cifra: Principal
exibições 22.327
Tom: E
Intro:

E|--0-0-0-0-0-0-0-0-0-0--0-0--0-0--0-----------------------------|
B|--5-5-5-5-4-2-2-2-2-10-9-12-7-10-9-----------------------------|
G|---------------------------------------------------------------|
D|---------------------------------------------------------------|
A|---------------------------------------------------------------|
E|---------------------------------------------------------------|    (2x)


E                                 A
I got a notion that says it doesn't feel right
C#m                    B
Got the answer in your story today
E                A                C#m      B
You gave me a sign that didn't feel right

E                             A                  C#m      B
So don't knock it, don't knock it, you been here before
E                            A                   C#m      B
So don't knock it, don't knock it, you been here before

E                           A
I just wanted to know if i could go home
C#m                 B
Been rambling day after day
E            A          C#m        B
Everyone says they don't know

E                             A                  C#m      B
So don't knock it, don't knock it, you been here before
E                            A                   C#m      B
So don't knock it, don't knock it, you been here before
Solo:

E|-----------------------------------|
B|--5-4----5~-4-6~---5-4----5-4-0----|
G|------6----------------6-----------|
D|-----------------------------------|
A|-----------------------------------|
E|-----------------------------------|


E|-----------------------------------|
B|--5-4----5~-4-6~---5-4-0-----------|
G|------6------------------6~\0------|
D|-----------------------------------|
A|-----------------------------------|
E|-----------------------------------|


E                     A
I got a notion that says it doesn't feel right
C#m               B
I just wanted to know if i could go home

E                             A                  C#m      B
So don't knock it, don't knock it, you been here before
E                            A                   C#m      B
So don't knock it, don't knock it, you been here before

0 comentários

    mostrar mais comentários

    Conseguiu tocar?

    11tocaram1ainda não

    Grave um vídeo tocando Notion e mande pra gente!

    00:00 / 00:00
    outros vídeos desta música
    repetirqualidadeautomática
    Outro vídeos desta música
      00:00 / 00:00
      automática
      OK