Cifra Club

Ohm Sweet Ohm

Kraftwerk

Cifra: Principal (violão e guitarra)
Selo Cifra Club: esta cifra foi revisada para atender aos critérios oficiais da nossa Equipe de Qualidade.
tom: Em
[Intro:]
    G
E|---------------------------------------------------------------|
B|---------------------------------------------------------------|
G|---------------------------------------------------------------|
D|--5------5--5--------------------------------------------------|
A|---------------------------------------------------------------|
E|--3------3--3--------------------------------------------------| (7x)

[Chorus:]
    G        D                 G         D              Am B
E|---------------------------------------------------------------|
B|-----------3--3----5-3-----------------3--3----5-3-------------|
G|--------4-----------------5--4------4-----------------5--4-----|
D|--5-------------------------------5----------------------------|
A|---------------------------------------------------------------|
E|---------------------------------------------------------------|

       Em      G   Am      G D G
E|---------------------------------------------------------------|
B|---------------------------------------------------------------|
G|---------------------------4-----------------------------------|
D|--5----------5---7-----5-7---5---------------------------------|
A|-----5--7---------------------------5--------------------------|
E|---------------------------------------------------------------| (10x)
Outros vídeos desta música
    6 exibições
      • ½ Tom
      • Am
      • Bbm
      • Bm
      • Cm
      • C#m
      • Dm
      • Ebm
      • Em
      • Fm
      • F#m
      • Gm
      • G#m
    • Adicionar à lista

    Afinação da cifra

    Afinador online

      0 comentários

      Ver todos os comentários

      Entre para o Cifra Club PRO

      Tenha acesso a benefícios exclusivos no App e no Site

      • Chega de anúncios

      • Mais recursos no app do Afinador

      • Atendimento Prioritário

      • Aumente seu limite de lista

      • Ajude a produzir mais conteúdo

      Cifra Club Pro

      Aproveite o Cifra Club com benefícios exclusivos e sem anúncios
      Cifra Club Pro
      Aproveite o Cifra Club com benefícios exclusivos e sem anúncios
      OK