Cifra Club

Surazul

La Ley

Cifra: Versão 2 (violão e guitarra)
Selo Cifra Club: esta cifra foi revisada para atender aos critérios oficiais da nossa Equipe de Qualidade.
tom: C
Intro:

  0:00     C               Am                   C        F
E|--------------|------------3/5/8-3/5/8-|----------|-------|
B|--------------|------------------------|----------|-------|
G|--------------|------------------------|----------|-------|
D|--------0-0h2-|--0h2-0-----------------|----------|-------|
A|----0-3-------|--------3-0-------------|----------|-------|
E|--3-----------|------------------------|--7~--7/3-|-0-3-3/5|
 0:16     C             Am             C              F
E|--------------|----------------|-------------|-------------|
B|--------------|----------------|-------------|-------------|
G|-----5-7-7/9~-|--7br-5---------|--5-4h5p4----|-------------|
D|--5h7---------|-----------5/7~-|----------7-5|------5---5/7|
A|--------------|----------------|-------------|--5h7---7----|
E|--------------|----------------|-------------|-------------|
 0:32      C
E|------------|
B|------------|
G|--5-5////-0-|
D|------------|
A|------------|
E|------------|

C
Solo sueña y dime
    Am
Si todo esto es real
C
Solo sueña y dime
     F
Si podremos llegar
G                   Am
Juntos aunque la distancia nos deje ver
F                     G
Que el amor es algo maa-aa aaaaaaas

C
Solo sueña y dime
          Am     (Rifft 1)
Si hay posibilidad
C
Solo sueña y dime
      F
Que jamás cambiaras

G                      Am
Aunque algunas circunstancias no dejen ver
F                      G            F
Que es posible proyectaa-aa-aaaaaarse

                C
Me veras en el suuuuuuur
F                          C
Donde el mar es triste y azuuuuuuuul
G                   Am                (Rifft 2)
Juntos aunque la distancia nos deje ver
F                    G
Que el amor es algo mas
(El solo se acompaña con las notas anteriores C,Am,C,F,G
es cuestion de acoplarlas al solo)

Solo:
  2:12
E|---------------------------------------------------|
B|---------------------------------------------------|
G|---------------------------------------------------|
D|------10-10//-----10-10/9-b~~--10h12-10------------|
A|--/10---------/10-----------------------10/12///---|
E|---------------------------------------------------|
  2:20-2:21                        2:27-2:28           ( x2)
E|-------------------------------|---------------------x---x|
B|----10-8--10-8--10-8-----------|------------7/9/7----x-7-x|
G|--9------9-----9-----9~-7br----|--------/7--7/9/7-/7-x-7bx|
D|----------------------------10~|--10-10--------------x---x|
A|-------------------------------|---------------------x---x|
E|-------------------------------|---------------------x---x|
 2:36
E|------------------------------------------------------|
B|--12br-10-15brp13-15-15brp13------------15p13---------|
G|-----------------------------15p13-11~--------15------|
D|-------------------------------------------------16~--|
A|------------------------------------------------------|
E|------------------------------------------------------|
 2:43
E|--------------------------------------|
B|--------------------------------------|
G|--14p12-------------------------------|
D|-------14-14p12----------12-12/14~~~~-|
A|----------------12-14-15--------------|
E|--------------------------------------|

C
Solo sueña y dime
      Am      (Rifft 3)
Seguiremos acá
C
Solo sueña y dime
        F
Con esfuerzo avanzaaaaar
G                    Am                (Rifft 4)
Juntos aunque la impaciencia nos deje ver
F                    G
Que es difícil perduraa-aa-aaaaaar

F               C
Me veras en el suuuuuuuuuuur
F                          C
Donde el mar es triste y azuuuuuuuuul
 F               C
Me veras en el sur ohoohhh
F                          C      F
Donde el mar es triste y azuuuuuuul
C
Surazul ohhohh
F
Surazuuuuuuul
C
Ahaa hahahah hahaa

Sur azuuuuu uuuu uul
Aaah aahahahha hahahahah ahh aha ha
Surazul
Surazul
Aaaaahhhhh ahh ahaha ha a aaaaha aa ahaa haaa ha

Y así continua hasta que hace Fade out la rola en F y C

Vamos con los pequeños arreglos que le dan feeling a esta rola.

 Rifft 1             Rifft 2            Riff 3
      Am               Am                  Am
E|-----------| e|------7-5--|     e|-----------|
B|--3/5/3----| b|---5-------|     b|--6p5------|
G|--------5~-| g|--7--------|     g|------6-0--|
D|-----------| D|-----------|     D|-----------|
A|-----------| A|-----------|     A|-----------|
E|-----------| E|-----------|     E|-----------|

     Rifft 4
        Am
E|---------------|
B|--12br-10-10~--|
G|---------------|
D|---------------|
A|---------------|
E|---------------|

Esa es toda la rola espero y les guste me faltaron algunos arreglos pero casi
no se escuchan y si se escuchan estan en la escala
 de la, asi que ya saben que hacer para sacarlos.
 solo una ultima aclaración, la guitarra eléctrica maneja todo el tiempo cejillas,
 y la guitarra electroacústica, utiliza las notas comunes sin cejilla, excepto F,
tóquenla y espero les haya gustado y ténganle mucho feeling asi como mi compadre
 Betito Cuevas por que es un rolon
!!!! Disfrútenla!!!!.

Traducción de mis garabatos
~ = Dejar vibrando la nota
b = Hacer un Full
r = Bajar la cuerda del full
/ = Deslizar el dedo hacia los trastes de arriba ejm: 9/////0
Pasa por el 8,7,6,5,4,3,2,1 hasta dejar la nota al         aire.
Otra nota en el solo en la parte del pricipio donde esta esto

E|--10/9-b~~|
“Significa que primero deslizas el dedo al 9 (10/9)
“Después esperas, luego realizas un Full (b)
“Y al ultimo Vibras la cuerda (~~)
Outros vídeos desta música
    10 exibições
      • ½ Tom
      • A
      • Bb
      • B
      • C
      • Db
      • D
      • Eb
      • E
      • F
      • F#
      • G
      • Ab
    • Adicionar à lista

    Afinação da cifra

    Afinador online

      0 comentários

      Ver todos os comentários

      Entre para o Cifra Club PRO

      Tenha acesso a benefícios exclusivos no App e no Site

      • Chega de anúncios

      • Badges exclusivas

      • Mais recursos no app do Afinador

      • Atendimento Prioritário

      • Aumente seu limite de lista

      • Ajude a produzir mais conteúdo

      Cifra Club Pro

      Aproveite o Cifra Club com benefícios exclusivos e sem anúncios
      Cifra Club Pro
      Aproveite o Cifra Club com benefícios exclusivos e sem anúncios
      OK