Cifra Club

Heaven's a lie

Lacuna Coil

Cifra: Principal (violão e guitarra)
Selo Cifra Club: esta cifra foi revisada para atender aos critérios oficiais da nossa Equipe de Qualidade.
tom: A
E |-----------------------------------------------------------------|
B |--7/9-9p7\5---7/9-9p7\5---------7/9-9p7\5---7/9-9p7\5-5/10-10-10-|
G |-----------------------------------------------------------------|
D |-----------------------------------------------------------------|
A |-----------------------------------------------------------------|
E |-----------------------------------------------------------------|

E |-----------------------------------------------------------------|
B |--7/9-9p7\5---7/9-9p7\5---------7/9-9p7\5---7/9-9p7\5-5/10-10-10-|
G |-----------------------------------------------------------------|
D |-----------------------------------------------------------------|
A |-----------------------------------------------------------------|
E |-----------------------------------------------------------------|

E |-----------------------------------------------|
B |-----------------------------------------------|
G |-----5--------------------------5--------------|
D |-2---5---7---5---7----------2---5---7---5---4--|
A |-2---3---7---5---7----------2---3---7---5---4--|
E |-0-------5---3---5----------0-------5---3---2--|

E |-------------------------------------------------|
B |-------------------------------------------------|
G |----------5-5-5-5--------------------------------|
D |-2-2-2-2--5-5-5-5----7-7-7-7--5-5-5-5--4-4-x-----|
A |-2-2-2-2--3-3-3-3----7-7-7-7--5-5-5-5--4-4-5-----|
E |-0-0-0-0-------------5-5-5-5--3-3-3-3--2-2-5-----|

E |-----------------------------------------------|
B |-----------------------------------------------|
G |----------5-5-5-5------------------------------|
D |-2-2-2-2--5-5-5-5--7-7-7-7--5-5-5-5--4-4-4-----|
A |-2-2-2-2--3-3-3-3--7-7-5-7--5-5-5-5--4-4-4-----|
E |-0-0-0-0-----------5-5-5-5--3-3-3-3--2-2-2-----|

E |-----------------------------------------|-----------------------------------------------|
B |-----------------------------------------|-----------------------------------------------|
G |-12-12-12-11-11-9---12--12-12-11-11-9-9--|--12-12-12-11-11-9---12--12-12-9--14-14-14-14--|
D |-----------------------------------------|-----------------------------------------------|
A |-10-10-10-9--9--7---10--10-10-9--9--7-7--|--10-10-10-9--9--7---10--10-10-7--12-12-12-12--|
E |-----------------------------------------|-----------------------------------------------|

E |-----------------------------------------------------------------|
B |--7/9-9p7\5---7/9-9p7\5---------7/9-9p7\5---7/9-9p7\5-5/10-10-10-|
G |-----------------------------------------------------------------|
D |-----------------------------------------------------------------|
A |-----------------------------------------------------------------|
E |-----------------------------------------------------------------|

E |-----------------------------------------------|
B |-----------------------------------------------|
G |-----5--------------------------5--------------|
D |-2---5---7---5---7----------2---5---7---5---4--|
A |-2---3---7---5---7----------2---3---7---5---4--|
E |-0-------5---3---5----------0-------5---3---2--|

E |--2-3-3-2-0-0--2-3-3-2-0-0-5-5-5-5-------------|
B |-----------------------------------------------|
G |-----------------------------------------------|
D |-----------------------------------------------|
A |-----------------------------------------------|
E |-----------------------------------------------|

E |-----------|
B |-----------|
G |-----------|
D |----(2)----|
A |----(2)----|
E |----(0)----|

Outros vídeos desta música
    15.679 exibições
      • ½ Tom
      • A
      • Bb
      • B
      • C
      • Db
      • D
      • Eb
      • E
      • F
      • F#
      • G
      • Ab
    • Adicionar à lista

    Afinação da cifra

    Afinador online

      0 comentários

      Ver todos os comentários

      Entre para o Cifra Club PRO

      Tenha acesso a benefícios exclusivos no App e no Site

      • Chega de anúncios

      • Badges exclusivas

      • Mais recursos no app do Afinador

      • Atendimento Prioritário

      • Aumente seu limite de lista

      • Ajude a produzir mais conteúdo

      Cifra Club Pro

      Aproveite o Cifra Club com benefícios exclusivos e sem anúncios
      Cifra Club Pro
      Aproveite o Cifra Club com benefícios exclusivos e sem anúncios
      Ops (: Contenido disponible sólo en portugués.
      OK