Cifra Club

Um Sonhador / Não Precisa / Não Aprendi a Dizer Adeus

Lauana Prado

Cifra: Principal (violão e guitarra)
Selo Cifra Club: esta cifra foi revisada para atender aos critérios oficiais da nossa Equipe de Qualidade.
tom: Bb (forma dos acordes no tom de G) Capotraste na 3ª casa
[Intro] Am  C  G
        Am  C  G  C9  G

[Tab - Intro]

                    Am      
E|------------------0-0-0-0-0-0-0-----------|
B|-----3------------1-1-1-1-1-1-1-----------|
G|-2/4---4/2-0------2-2-2-2-2-2-2-----------|
D|-------------2-0--2-2-2-2-2-2-2-----------|
A|------------------0-0-0-0-0-0-0-----------|
E|------------------x-x-x-x-x-x-x-----------|
                    ↓ ↓ ↑ ↓ ↑ ↓ ↑
   C                   G
E|-0-------------------3-3-3-3-3-3-3-3------|
B|-1------3------------2-2-2-2-2-2-2-2------|
G|-0--2/4---4/2-0------0-0-0-0-0-0-0-0------|
D|-2--------------2-0--0-0-0-0-0-0-0-0------|
A|-3-------------------2-2-2-2-2-2-2-2------|
E|-x-------------------3-3-3-3-3-3-3-3------|
   ↓                   ↓ ↓ ↑ ↓ ↑ ↓ ↑ ↓

                    Am      
E|------------------0-0-0-0-0-0-0-----------|
B|-----3------------1-1-1-1-1-1-1-----------|
G|-2/4---4/2-0------2-2-2-2-2-2-2-----------|
D|-------------2-0--2-2-2-2-2-2-2-----------|
A|------------------0-0-0-0-0-0-0-----------|
E|------------------x-x-x-x-x-x-x-----------|
                    ↓ ↓ ↑ ↓ ↑ ↓ ↑

   C                   G        C9      G
E|-0-------------------3--------------------|
B|-1------3------------2--------------------|
G|-0--2/4---4/2-0------0--------------------|
D|-2--------------2-0--0--------------------|
A|-3-------------------2----0-2-3-3-2-0-----|
E|-x-------------------3--3-------------3---|
   ↓                   ↓

[Primeira Parte]

                     G
Eu não sei pra onde vou
                     Am
Pode até não dar em nada
                    F  D7
Minha vida segue o sol
                       G   C9  G
No horizonte dessa estrada

Eu nem sei mesmo quem sou
                  Am
Nessa falta de carinho
                        F  D7
Por não ter um grande amor
                 G
Aprendi à ser sozinho

[Refrão 1]

                     C
E onde o vento me levar
                   G
Vou abrir meu coração
                    Am
Pode ser que num caminho
                      C
Num atalho ou num sorriso
     D7          G
Aconteça uma paixão

      D/F#  Em
E vou a___char
                 C9
Num toque do destino
                  G
O brilho de um olhar
              D7
Sem medo de amar
     G   D  Em
Não vou deixar
                C9
De ser um sonhador
                    G
Pois sei vou encontrar
                   D7    C
No fundo dos meus sonhos
   D7          G  C9  G
O meu grande amor

( C9  G  D  Em )
( C9  G  D  G )

[Segunda Parte]

                     D
Você diz que não precisa
C9                 Em7
   Viver sonhando tanto
              C9    G         D
Que vivo a fazer demais, por você

Diz que não precisa
C9                 Em7
   A cada vez que canto
        C9    G        D
Uma canção a mais pra você

[Refrão 2]

                   C9
Mas tem que ser assim
                G
Pra ser de coração
                 D
Não diga não precisa
        Em7
Ah, ah, ah

               C9
Tem que ser assim
               G
É seu meu coração
                 D
Não diga não precisa
        G
Ah, ah, ah

( C9  G  D )
( G  C9  G D4 )

[Terceira Parte]

                    G
Não aprendi dizer adeus
                    C9
Não sei se vou me acostumar
                         D7
Olhando assim nos olhos teus

Sei que vai ficar nos meus
                 G  C9  G
A marca desse olhar

                      G
Não tenho nada pra dizer
               C9
Só o silêncio vai falar por mim
                        G
Eu sei guardar a minha dor
                  D7
Apesar de tanto amor vai ser
    G     C9  G
Melhor assim

[Refrão 3]

                    C9
Não aprendi dizer adeus
                   D
Mas tenho que aceitar
                  Bm
Que amores vêm e vão
             Em
São aves de verão
             Am    D
Se tens que me deixar
                  G 
Que seja, então, feliz

          Am   G/B  C9
Não aprendi dizer adeus
               D
Mas deixo você ir
                   Bm
Sem lágrimas no olhar
                  Em
Se o adeus me machucar
           Am     D
O inverno vai passar
                G 
E apaga a cicatriz
Outros vídeos desta música
134.273 exibições
  • Simplificar cifra
    • ½ Tom
    • A
    • Bb
    • B
    • C
    • Db
    • D
    • Eb
    • E
    • F
    • F#
    • G
    • Ab
  • Adicionar à lista

Afinação da cifra

Afinador online

    0 comentários

    Ver todos os comentários

    Entre para o Cifra Club PRO

    Tenha acesso a benefícios exclusivos no App e no Site

    • Chega de anúncios

    • Mais recursos no app do Afinador

    • Atendimento Prioritário

    • Aumente seu limite de lista

    • Ajude a produzir mais conteúdo

    Cifra Club Pro

    Aproveite o Cifra Club com benefícios exclusivos e sem anúncios
    Cifra Club Pro
    Aproveite o Cifra Club com benefícios exclusivos e sem anúncios
    OK