Cifra Club

Viva Voz

Lauana Prado

Cifra: Principal (violão e guitarra)
Selo Cifra Club: esta cifra foi revisada para atender aos critérios oficiais da nossa Equipe de Qualidade.
tom: F
[Intro] Gm  Dm  C  G

E|------------------------------------------|
B|----10---8--------------10--8-------------|
G|-5/7---7---7-10\9--7---7--7--7--7/9--7----|
D|------------------------------------------|
A|------------------------------------------|
E|------------------------------------------|

E|------------------------------------------|
B|---5h6--5h6p5-----------------------------|
G|---------------7-----7p5-7~---------------|
D|------------------------------------------|
A|------------------------------------------|
E|------------------------------------------|

[Primeira Parte]

Bb9                     Dm    
   Deve tá muito bom aí 
F                        C9
 Pra você me ligar essa hora
Bb9                     Dm   
   A sua foto não condiz    
F                   C9
 Com o que cê tá falando agora

[Pré-Refrão]

Gm              Dm                   
   Achou mais um  amor comum 
  C9                      
Que não chega aos pés 
    G
Da nossa história
Gm            Dm              
  Mas eu achei  e ele fez 
C9                          G
O que cê tá me prometendo agora

[Refrão]

C/G               G   
E ele tá no viva voz     
Dm                Am7
Ouvindo cê falar de nós
C9             G      
Ele falou pra te falar 
     Dm                                       
Que se você não tá fazendo amor 
F
A gente tá

C9                G   
E ele tá no viva voz     
Dm                Am7
Ouvindo cê falar de nós
C9             G      
Ele falou pra te falar 
     Dm                                       
Que se você não tá fazendo amor 
F
A gente tá

[Solo] Gm  Dm  C9  G
       Gm  Dm  C9  G

E|------------------------------------------|
B|----10--8------------10-8-----------------|
G|-5/7--7---7-10\9--7-7--7-7-5h6-5-5h6-5----|
D|----------------------------------------7-|
A|------------------------------------------|
E|------------------------------------------|

E|------------------------------------------|
B|----10---8--------------10--8-------------|
G|-5/7---7---7-10\9--7---7--7--7--7/9--7----|
D|------------------------------------------|
A|------------------------------------------|
E|------------------------------------------|

E|------------------------------------------|
B|---5h6--5h6p5-----------------------------|
G|---------------7-----7p5-7~---------------|
D|------------------------------------------|
A|------------------------------------------|
E|------------------------------------------|

[Pré-Refrão]

Gm              Dm                   
   Achou mais um  amor comum 
  C9                      
Que não chega aos pés 
    G
Da nossa história
Gm            Dm              
  Mas eu achei  e ele fez 
C9                          G
O que cê tá me prometendo agora

[Refrão]

C/G               G   
E ele tá no viva voz     
Dm                Am7
Ouvindo cê falar de nós
C9             G      
Ele falou pra te falar 
     Dm                                       
Que se você não tá fazendo amor 
F
A gente tá

C9                G   
E ele tá no viva voz     
Dm                Am7
Ouvindo cê falar de nós
C9             G      
Ele falou pra te falar 
     Dm                                       
Que se você não tá fazendo amor 
F
A gente tá

C9                G   
E ele tá no viva voz     
Dm                Am7
Ouvindo cê falar de nós
C9             G      
Ele falou pra te falar 
     Dm                                       
Que se você não tá fazendo amor 
F
A gente tá

[Final] Gm  Dm  C9  G
        Gm  Dm  C9  G

E|------------------------------------------|
B|----10--8------------10-8-----------------|
G|-5/7--7---7-10\9--7-7--7-7-5h6-5-5h6-5----|
D|----------------------------------------7-|
A|------------------------------------------|
E|------------------------------------------|

E|------------------------------------------|
B|----10---8--------------10--8-------------|
G|-5/7---7---7-10\9--7---7--7--7--7/9--7----|
D|------------------------------------------|
A|------------------------------------------|
E|------------------------------------------|

E|------------------------------------------|
B|---5h6--5h6p5-----------------------------|
G|---------------7-----7p5-7~---------------|
D|------------------------------------------|
A|------------------------------------------|
E|------------------------------------------|

E|------------------------------------------|
B|----10--8------------10-8-----------------|
G|-5/7--7---7-10\9--7-7--7-7-5h6-5-5h6-5----|
D|----------------------------------------7-|
A|------------------------------------------|
E|------------------------------------------|

E|------------------------------------------|
B|----10---8--------------10--8-------------|
G|-5/7---7---7-10\9--7---7--7--7--7/9--7----|
D|------------------------------------------|
A|------------------------------------------|
E|------------------------------------------|

E|------------------------------------------|
B|---5h6--5h6p5-----------------------------|
G|---------------7--------------------------|
D|------------------------------------------|
A|------------------------------------------|
E|------------------------------------------|
00:00 / 00:00
Outros vídeos desta música
Repetir
Outros vídeos desta música
176.016 exibições
    • ½ Tom
    • A
    • Bb
    • B
    • C
    • Db
    • D
    • Eb
    • E
    • F
    • F#
    • G
    • Ab
  • Adicionar à lista

Afinação da cifra

Afinador online

    0 comentários

    Ver todos os comentários

    Entre para o Cifra Club PRO

    Tenha acesso a benefícios exclusivos no App e no Site

    • Chega de anúncios

    • Mais recursos no app do Afinador

    • Atendimento Prioritário

    • Aumente seu limite de lista

    • Ajude a produzir mais conteúdo

    00:00 / 00:00

    Cifra Club Pro

    Aproveite o Cifra Club com benefícios exclusivos e sem anúncios
    Cifra Club Pro
    Aproveite o Cifra Club com benefícios exclusivos e sem anúncios
    OK