Cifra Club

Amores Extraños

Laura Pausini

Cifra: Versão 4 (violão e guitarra)
tom: Em
E|-12-10---------------13-12h13p12-10-------------|
B|-------13---------------------------------------|
G|------------------9--------------------------10-|
D|---------------12-------------------------14----|
A|------------10-------------------------12-------|
E|----------8-------------------------10----------|

E|-10-8-7---------12-10--------------12-10-------------|
B|----------------------13-----------------13----------|
G|---------------------------------9--------------9----|
D|----------0-7-9---------------12--------------7---7--|
A|---------------------------10---------------0--------|
E|--------3----------------8---------------------------|

E|-15-13-12-10-------------10-8-7------------8----10-|
B|----------------------------------------3--8---10--|
G|----------------------7---------------4----9--10---|
D|------------------7-----------------5--------------|
A|-0--------------7---7------------------------------|
E|--------------5-----------------3------------------|

C
Ya sabía que no llegaría,
Am
ya sabía que era una mentira,
G
cuanto tiempo que por él perdí,
C
que promesa rota sin cumplir.
F          C      Am
Son amores problemáticos,
F            Gsus4   G
como tú, como yo.

Es la espera en un teléfono,
la aventura de lo ilógico,
la locura de lo mágico,
un veneno sin antídoto,
la amargura de lo efímero,
porque él se marchó.

C                     F
Amores, tan extraños que te hacen cínica,
G                 C       E7
te hacen sonreir entre lágrimas.
F               G        Em
Cuántas páginas hipotéticas,
F                G
para no escribir las auténticas.

Son amores que sólo a nuestra edad
se confunden en nuestros espíritus,
te interrogan y nunca te dejan ver,
si serán amor o placer.

D
Y cuantas noches lloraré por él,
Bm
cuantas veces volveré a leer
F#m
aquellas cartas que yo recibía
D
cuando mis penas eran alegrías.
G          D      Bm
Son amores esporádicos,
G            Asus4  A
pero en tí quedarán.

        D                G
Amores, tan extraños que vienen y se van,
   A                D         (F#7)
que en tu corazón sobrevivirán,
G                  A         F#m
son historias que siempre contarás
G                     A
sin saber si son de verdad.

E          C#m
Son amores frágiles,
G#m             E
prisioneros, cómplices,
A            E      C#m
son amores problemáticos,
A         Bsus4   B
como tú, como yo.

Son amores frágiles,
prisioneros, cómplices,
tan extraños que viven negándose
escondiéndose de los dos.

E
Ya sabía que no llegaría,
C#m
esta vez me lo prometeré,
G#m                   B
Tengo ganas de un amor sincero,
  A                  F#m                B7                    A  B7  E
E|-12-10-9-----------19-17-16-14h16p14--14-12h14p12-11---------12-14-----------0-|
B|---------------------------------------------------------------------------0---|
G|--------------9-----------------------------------------------9----------1-----|
D|---------------------------------------------------------9-------------2-------|
A|-----------11---11-------------------------------------9---9---------2---------|
E|---------9-------------------------------------------7-------------0-----------|
ya sin él                             uu  uu uuu   u u u      uuuuuuuuuuuuuu
00:00 / 00:00
Outros vídeos desta música
Repetir
Outros vídeos desta música
Composição de Angelo Valsiglio / Cheope / Francesco Tanini / Marco Marati / Roberto Buti
5 exibições
    • ½ Tom
    • Am
    • Bbm
    • Bm
    • Cm
    • C#m
    • Dm
    • Ebm
    • Em
    • Fm
    • F#m
    • Gm
    • G#m
  • Adicionar à lista

    0 comentários

    Ver todos os comentários

    Conseguiu tocar?

    0 Tocaram 0 Ainda não

    Grave um vídeo tocando Amores Extraños e nos envie!

    Entre para oCifra Club PRO

    Tenha acesso a benefícios exclusivos no App e no Site

    • Chega de anúncios

    • Prioridade de compra em lançamentos

    • Mais recursos no app do Afinador

    • Atendimento Prioritário

    • Descontos nos produtos Cifra Club

    • Ajude a produzir mais conteúdo

    00:00 / 00:00

    Cifra Club Pro

    Aproveite o Cifra Club com benefícios exclusivos e sem anúncios
    Cifra Club Pro
    Aproveite o Cifra Club com benefícios exclusivos e sem anúncios
    OK