Cifra Club

Aprenda

Mudou a Vibe

Léo Santana

Cifra: Principal (violão e guitarra)
Tom: C
Am
Hoje ela decidiu que vai sair
G
Maquiou essa tristeza com um sorriso
F
E um decote pra chamar atenção
Em
De quem passar por perto

Dm
Avisa lá
                       Am
Pra quem deixou ela solteira

Saca só

Vestidinho coladinho
    F
Salto alto, coração soltinho
          G
Que nem arroz

Solo Guitarra:
E|------------------------|
B|-8-8-8------8-8-8-------|
G|-------5-5--------5-5---|
D|------------------------|
A|------------------------|
E|------------------------|

E|-----------------------------------|
B|--8-6-5-6-5------------8-6-5-------|
G|------------7----4-4-4-------7-7-5-|
D|-----------------------------------|
A|-----------------------------------|
E|-----------------------------------|

E|----------------------------------------|
B|----------------------------------------|
G|--5---5-7-5-5---5-5-5-5-7-7-7-7/9-9-7-5-|
D|----------------------------------------|
A|----------------------------------------|
E|----------------------------------------|

C
Mudou a vibe

Foi pra night
               G
Conheceu novas pessoas

Ele ficou só
                        Am
Ela encontrando outras bocas

Voltou a sentir
            F
O gosto da vida
               G
Dançando pra sua despedida
Composição de Leandro Targino / Robledo Neto / Samuel Mendes / Valdinei Souza
Colaboração e revisão:
  • Miguel Neto
1.757 exibições
    • ½ Tom
    • A
    • Bb
    • B
    • C
    • Db
    • D
    • Eb
    • E
    • F
    • F#
    • G
    • Ab
  • Adicionar à lista

    0 comentários

    Mostrar mais comentários

    Conseguiu tocar?

    0 Tocaram 0 Ainda não

    Grave um vídeo tocando Mudou a Vibe e mande pra gente!

    00:00 / 00:00
    outros vídeos desta música
    repetir qualidade Automático
    Outros vídeos desta música
    00:00 / 00:00
    Automático

    Cifra Club Pro

    Aproveite o Cifra Club com benefícios exclusivos e sem anúncios
    7 dias grátis
    Cifra Club Pro
    Aproveite o Cifra Club com benefícios exclusivos e sem anúncios
    7 dias grátis
    OK