Cifra Club

Aprenda

All my best friends are metalheads

Less Than Jake

Cifra: Principal (violão e guitarra)
tom: E
/-slide up
x-mute
pm-palm muted 

intro

e|----------------------------------------------------------------------------------------------
B|----------------------------------------------------------------------------------------------
G|-9-x-8-9-9-6-6/8-9--------------9-9-9-9-9/11-x-x-9-x-8-9-9-6-6/8--13-13-13-11-13-9-9-9-9-9-9-9
D|-9-x-9-9-9-7-7/9-9--9-9-9-9-9---9-9-9-9-9/11-x-x-9-x-9-9-9-7-7/9--11-11-11-11-11-7-7-7-7-7-7-7
A|-7-x-------------7--7-7-7-7-7----------------x-x-7-x------------------------------------------
E|----------------------------------------------------------------------------------------------
                    pm---------|

Verse 1

e|-x-7-x-7-x-7-x-7-x-5-x-5/7-7-x-7-
B|-x-9-x-9-x-9-x-9-x-5-x-5/7-7-x-7-
G|-x-9-x-9-x-9-x-9-x-6-x-6/8-8-x-8-
D|-x-9-x-9-x-9-x-9-x-7-x-7/9-9-x-9-
A|-x-7-x-7-x-7-x-7-x-7-x-7/9-9-x-9-
E|-----------------x-5-x-5/7-7-x-7- 

verse 2

e|-x-7-x-7-x-7-x-7-5----7-
B|-x-9-x-9-x-9-x-9-5----7-
G|-x-9-x-9-x-9-x-9-6----8-
D|-x-9-x-9-x-9-x-9-7----9-
A|-x-7-x-7-x-7-x-7-7----9-
E|-----------------5----7-      

Pre chorus

e|-x-5-x-5-x-5-x-5-x-7-x-7-x-7-x-7-x-5-x-5-x-5-x-5-x-
B|-x-5-x-5-x-5-x-5-x-9-x-9-x-9-x-9-x-5-x-5-x-5-x-5-x-
G|-x-6-x-6-x-6-x-6-x-9-x-9-x-9-x-9-x-6-x-6-x-6-x-6-x-
D|-x-7-x-7-x-7-x-7-x-9-x-9-x-9-x-9-x-7-x-7-x-7-x-7-x-
A|-x-7-x-7-x-7-x-7-x-7-x-7-x-7-x-7-x-7-x-7-x-7-x-7-x-
E|-x-5-x-5-x-5-x-5-x---------------x-5-x-5-x-5-x-5-x-   ...

       --7-x-7-x-7-x-7-x-5-x-5-x-5-x-5-x-7-x-7-x---|                  
       --9-x-9-x-7-x-7-x-5-x-5-x-5-x-5-x-9-x-9-x---|                  
       --9-x-9-x-8-x-8-x-6-x-6-x-6-x-6-x-9-x-9-x---|                  
       --9-x-9-x-9-x-9-x-7-x-7-x-7-x-7-x-9-x-9-x-9-|                  
       --7-x-7-x-9-x-9-x-7-x-7-x-7-x-7-x-7-x-7-x-9-|                  
  ...  ----------7-x-7-x-5-x-5-x-5-x-5-x---------7-| strum many times 


Chorus part 1

e|-----------
B|-----------
G|-----------
D|-2-7-7-7-9-
A|-2-7-7-7-9-
E|-0-5-5-5-7-  each cord for one beat

chorus part 2

e|-----------
B|-----------
G|-----------
D|-2~--------
A|-2~--------
E|-0~--------

bridge 1 (after secong chorus)

e|------------------------------------------------
B|------------------------------------------------
G|-9-x-8-9-9-6-6/8---13-13-13-11-13-9-9-9-9-9-9-9-
D|-9-x-9-9-9-7-7/9---11-11-11-11-11-7-7-7-7-7-7-7-
A|-7-x--------------------------------------------

bridge 2

e|-------------------------------------------------
B|-------------------------------------------------
G|-----------------9-9-9-9-9-9-9-9-----------------
D|-7-7-7-7-7-7-7-7-9-9-9-9-9-9-9-9-7-7-7-7-7-7-7-7-
A|-7-7-7-7-7-7-7-7-7-7-7-7-7-7-7-7-7-7-7-7-7-7-7-7-
E|-5-5-5-5-5-5-5-5-----------------5-5-5-5-5-5-5-5-
 pm------------------------------------------------   ...
  
             ----------------------------------------------------|                  
             ----------------------------------------------------|                  
             9-9-9-9---------------------------9-9-9-9-9-9-9-9---|                  
             9-9-9-9-9-9-9-9-7-7-7-7-7-7-7-7-7-9-9-9-9-9-9-9-9-9-|                  
             7-7-7-7-9-9-9-9-7-7-7-7-7-7-7-7-7-7-7-7-7-7-7-7-7-9-|                  
             --------7-7-7-7-5-5-5-5-5-5-5-5-5-----------------7-| strum many times 
     ...     pm--------------------------------------------------|                    
 


End chorus part 1

e|------------
B|------------
G|------------
D|-4-9-9-9-11-
A|-4-9-9-9-11-
E|-2-7-7-7-9--

End chorus part 2

e|------------
B|------------
G|------------
D|-9----------
A|-9----------
E|-7---------- strum many times

end riff

e|---------------------------------------
B|---------------------------------------
G|-11-x-10-11-11-8-8/10-15-15-15-13-15-11~
D|-11-x-11-11-11-9-9/11-13-13-13-13-13-9~ let ring
A|-9--x----------------------------------
E|---------------------------------------

order

intro

verse 1 x3 
verse 2 x1  repeated x2

Pre chorus
chorus part 1 x3
chorus part 2

verse 1 x3
verse 2 x1

pre chorus

chorus part 1 x3
chorus part 2 repeated x2

bridge 1 x4
bridge 2 x1

chorus part 1 x3
chorus part 2 x1

end chorus part 1 x7
end chorus part 2 x1

end riff
Composição de Chris Demakes / Roger Manganelli / Vinnie Fiorello
Colaboração e revisão:
  • Antonio Filho
5.086 exibições
    • ½ Tom
    • A
    • Bb
    • B
    • C
    • Db
    • D
    • Eb
    • E
    • F
    • F#
    • G
    • Ab
  • Adicionar à lista

    0 comentários

    Ver todos os comentários

    Conseguiu tocar?

    0 Tocaram 0 Ainda não

    Grave um vídeo tocando All my best friends are metalheads e nos envie!

    00:00 / 00:00
    outros vídeos desta música
    repetir qualidade Automático
    Outros vídeos desta música
    00:00 / 00:00
    Automático

    Cifra Club Pro

    Aproveite o Cifra Club com benefícios exclusivos e sem anúncios
    Cifra Club Pro
    Aproveite o Cifra Club com benefícios exclusivos e sem anúncios
    OK