Cifra Club

Little Rosa

Letters To Cleo

Cifra: Principal (violão e guitarra)
Selo Cifra Club: esta cifra foi revisada para atender aos critérios oficiais da nossa Equipe de Qualidade.
tom: D
D  Dsus4  D  Em  G  A
D


[Verse 1]
           Em    G   A       D
Little Rosa was gonna shine
           Em     G       A       G  F#m
Little Rosa had a real bad time
Em           G F#m Em       G F#m Em
She was not like anyone else
     A       D
She never will

         Em         G       A      D
Little Rosa the boys let her know
                    Em           G        A        G F#m
She's just not that way she don't put on a show
 Em   G F#m Em          G F#m Em
For nobody, not even you
             A         D
She's gonna sit alone


[Chorus 1]
 A          Bm   Gm         Em
Why would you make her feel so small
             G   Bb A D
That she'd just disappear?
 A          Bm   Gm         Em
Why would you make her feel so small
             G   Bb A D
That she'd just disappear?

[Solo]
   D                                  Em              G
   1 + 2 + 3 + 4 +   1 + 2 + 3 + 4 +   1 + 2 + 3 + 4  +    1 +  2  + 3  +  4  +
E|-----------------|----------------|--------------------|----------------------|
B|-----------------|----------------|--------------------|----------------------|
G|-----------------|----------------|--------------------|----------------------|
D|-----------------|----------------|--------------------|----------------------|
A|-5---5---5-5-5-5-|-5-5-5-5-5-/4---|-\2---2---2-----/10-|---10-10---10-10-10---|
E|-----------------|----------------|--------------------|----------------------|

   A                                                  D
   1     + 2 + 3 + 4 + .         1  +  2 + 3 + 4 +    1 + 2 + 3 + 4  +      1  + 2 + 3 + 4 +
E|-----------------------------|-------------------|----------------------|------------------|
B|-----------------------------|-------------------|----------------------|------------------|
G|-----------------------------|-------------------|-/7~-------------9b11-|---r9---7---9---7-|
D|-10b11~--------------x-10b11-|---r10-7-4-7---7---|----------------------|------------------|
A|-----------------------------|-------------------|----------------------|------------------|
E|-----------------------------|-------------------|----------------------|------------------|

  Em             G                         A                                         G
   1 + 2 + 3 + 4 +   1 + 2 + 3     + 4 +   1   + 2 + 3  + 4 +   1 +  2 + 3  + 4  +
E|-----------------|---------------------|--------------------|--------------------|------------|
B|-----------------|---------10b12-------|-10~-------10-8-8-8-|-8-\7-7-7-7-\5-5-\3-|-3~---------|
G|-----------------|---------------------|--------------------|--------------------|------------|
D|-9~------7~------|-5-------------------|--------------------|--------------------|------------|
A|-----------------|---------------------|--------------------|--------------------|------------|
E|-----------------|---------------------|--------------------|--------------------|------------|


[Verse 2]
G F#m

Em           G F#m Em       G F#m Em
She was not like anyone else
    G F#m
She was not like
A             D
She never will

           Em    G   F#m      A
Little Rosa was gonna shine, yeah


[Chorus 2]
D

 A          Bm   Gm         Em
So why would you make her feel so small
             G   Bb A D
That she'd just disappear?
 A          Bm   Gm         Em
Why would you make her feel so small
             G   Bb A D
That she'd just disappear?
 A          Bm   Gm         Em   G   Bb A
Why would you make her feel

[End]
F   C   D


Note: riff that's played at "she was not like..."
E|-------------|------------------|
B|-------------|------------------|
G|-------------|------------------|
D|-------------|------------------| (repeat)
A|--------------|---2-5-----0-5----|
E|---------0-2-|-3-----2-------0~-|



************************************

| / Slide up
| \ slide down
| ~ Vibrato/sustain
| b Bend
| r Release bend
Outros vídeos desta música
    18 exibições
      • ½ Tom
      • A
      • Bb
      • B
      • C
      • Db
      • D
      • Eb
      • E
      • F
      • F#
      • G
      • Ab
    • Adicionar à lista

    Afinação da cifra

    Afinador online

      0 comentários

      Ver todos os comentários

      Entre para o Cifra Club PRO

      Tenha acesso a benefícios exclusivos no App e no Site

      • Chega de anúncios

      • Badges exclusivas

      • Mais recursos no app do Afinador

      • Atendimento Prioritário

      • Aumente seu limite de lista

      • Ajude a produzir mais conteúdo

      Cifra Club Pro

      Aproveite o Cifra Club com benefícios exclusivos e sem anúncios
      Cifra Club Pro
      Aproveite o Cifra Club com benefícios exclusivos e sem anúncios
      Ops (: Contenido disponible sólo en portugués.
      OK