Cifra Club

Aprenda

Great Romantic

Lighthouse Family

Cifra: Principal (violão e guitarra)
Tom: Ab (forma dos acordes no tom de G) Capotraste na 1ª casa
[Intro]

    Asus2     A              A5
e|---------------------------------------------------|
B|--0---0---0---2---2---2----5---5---5---5---5---5---|
G|----2---2---2---2---2---2----2---2---2---2---2---2-|
D|---------------------------------------------------|
A|---------------------------------------------------|
E|---------------------------------------------------|

    Asus2     A              A5
e|---------------------------------------------------|
B|--0---0---0---2---2---2----5---5---5---5---5---5---|
G|----2---2---2---2---2---2----2---2---2---2---2---2-|
D|---------------------------------------------------|
A|---------------------------------------------------|
E|---------------------------------------------------|

A
Hey, so you threw your heart right in
                            Bm      G  
And it turned out less than perfect
A                                   F#m
A losing streak is starting in your mind
                             G                      Bm      
You let yourself believe the pain is never gonna be worth it

E
Don't beat yourself up
          Bm                               D       Dsus2
Know that you were never wrong for wishful thinking
E
So you done lost the battle
          Bm                                   G     D
Should we just cross out your name and let you sink?

A                           D              Bm7      D 
You got me feeling like the last surviving great romantic
A                         D                     Bm7  D
But stop dreaming and the world stops spinning around
A                       D                    Bm7      D
You feel foolish 'cause love never turns out like you planned it
A                          G 
And stop believing and the world starts letting you down

    Asus2       A           A5
e|---------------------------------------------------|
B|--0---0---0---2---2---2----5---5---5---5---5---5---|
G|----2---2---2---2---2---2----2---2---2---2---2---2-|
D|---------------------------------------------------|
A|---------------------------------------------------|
E|---------------------------------------------------|

A                                          Bm   G
So, you had to let it go it clearly wasn't working
A
A new love leaves you trembling
F#m
You hide behind the door
     G                        Bm
So unsure of what you used to know

E
So now you think
             Bm                               D      Dsus2 
You're every move ten steps ahead and you are frozen
E
Caught inside yourself
       Bm                         G   D
You're drowning as the anger overflows

A                           D              Bm7      D 
You got me feeling like the last surviving great romantic
A                         D                     Bm7  D
But stop dreaming and the world stops spinning around
A                       D                    Bm7      D
You feel foolish 'cause love never turns out like you planned it
A                          G 
And stop believing and the world starts letting you down

      A5
e|------------------------------|
B|------5---5---5---5---5---5---|
G|----2---2---2---2---2---2-----|
D|------------------------------|
A|------------------------------|
E|------------------------------|
Colaboração e revisão:
  • hamilton benetti
18 exibições
    • ½ Tom
    • A
    • Bb
    • B
    • C
    • Db
    • D
    • Eb
    • E
    • F
    • F#
    • G
    • Ab
  • Adicionar à lista

    0 comentários

    Mostrar mais comentários

    Conseguiu tocar?

    0 Tocaram 0 Ainda não

    Grave um vídeo tocando Great Romantic e mande pra gente!

    00:00 / 00:00
    outros vídeos desta música
    repetir qualidade Automático
    Outros vídeos desta música
    00:00 / 00:00
    Automático

    Cifra Club Pro

    Aproveite o Cifra Club com benefícios exclusivos e sem anúncios
    7 dias grátis
    Cifra Club Pro
    Aproveite o Cifra Club com benefícios exclusivos e sem anúncios
    7 dias grátis
    OK