Cifra Club

Zip Lock

LIT

Cifra: Principal (violão e guitarra)
Selo Cifra Club: esta cifra foi revisada para atender aos critérios oficiais da nossa Equipe de Qualidade.
tom: F#
   Zip-Lock
   Tabbed by: Jason Carter

   Intro/Played between verses/background on solo
   E------------------------------------------------|
   B------------------------------------------------|
   D-4-4-4--6-6--6-6-6--9-9-9--9-8--9-9-9--9-8------| riff played over this
   A-4-4-4--4-4--4-4-4--9-9-9--9-8--9-9-9--9-8------|
   E-2-2-2--------------7-7-7--7-6--7-7-7--7-6------|

   Verse
   E------------------------------------|
   B------------------------------------|
   G----4-------------------------------| There are some harmonics
   D-4--4-------------------------------| that I didn't tab out
   A-4--2-------------------------------|
   E-2----------------------------------|

   Pre-Chorus
   E----------------------------------------------------|
   B----------------------------------------------------|
   G-6-6-6-6-6-6-6-6--4-4-4-4-4-4-4-4-------------------|
   D-6-6-6-6-6-6-6-6--4-4-4-4-4-4-4-4--4-4-4-4-4-4-4-4--|
   A-4-4-4-4-4-4-4-4--2-2-2-2-2-2-2-2--4-4-4-4-4-4-4-4--|
   E-----------------------------------2-2-2-2-2-2-2-2--|

   E----------------------------------------------------|
   B----------------------------------------------------|
   G----------------------------------------------------|
   D-2-2-2-2-2-2-2-2--2-2-2-2-2-2-2-2--2-2-2-2-2-2-2-2--|
   A-2-2-2-2-2-2-2-2--2-2-2-2-2-2-2-2--2-2-2-2-2-2-2-2--|
   E-0-0-0-0-0-0-0-0--0-0-0-0-0-0-0-0--0-0-0-0-0-0-0-0--|

   Chorus
   E--------------------------------------------------|
   B--------------------------------------------------|
   G----------6-6-6-6--4-4-4-4-4-4-4-4----------------|
   D-4-4-4-4--6-6-6-6--4-4-4-4-4-4-4-4----------------|
   A-4-4-4-4--4-4-4-4--2-2-2-2-2-2-2-2----------------|
   E-2-2-2-2------------------------------------------|

   Solo
   I don't have it yet. Anybody out there do?
Outros vídeos desta música
332 exibições
    • ½ Tom
    • A
    • Bb
    • B
    • C
    • Db
    • D
    • Eb
    • E
    • F
    • F#
    • G
    • Ab
  • Adicionar à lista

Afinação da cifra

Afinador online

    0 comentários

    Ver todos os comentários

    Entre para o Cifra Club PRO

    Tenha acesso a benefícios exclusivos no App e no Site

    • Chega de anúncios

    • Mais recursos no app do Afinador

    • Atendimento Prioritário

    • Aumente seu limite de lista

    • Ajude a produzir mais conteúdo

    Cifra Club Pro

    Aproveite o Cifra Club com benefícios exclusivos e sem anúncios
    Cifra Club Pro
    Aproveite o Cifra Club com benefícios exclusivos e sem anúncios
    OK