Cifra Club

La Vida Mágica

Los Jaivas

Cifra: Principal (violão e guitarra)
Selo Cifra Club: esta cifra foi revisada para atender aos critérios oficiais da nossa Equipe de Qualidade.
tom: C
E|-12*13-13-12----------------------------15|
B|------------15-13-13-----12-13-----12-15--|
G|--------------------14-14-----14-12-------|

E|-12*13-13-12--------------------12---------------------15|
B|------------15-13-13-13*15-13*15--15-13-12-13-----12-15--|
G|---------------------------------------------14-12-------|

E|-13,13----13-12-----12-----------12-----------------------|
B|--------13-----15-13--15-13-12-13--15-13-12-13-----12-----|
G|------14--------------------------------------14-12--14-12|

E|-13,13----13-12-----12-----------------------------------------------------|
B|--------13-----15-13--15-13-12-13------13-12-10--12-10---------------------|
G|------14-------------------------14--14--------12-----12-10-9-10-9-10-10-9-|
D|-----------------------------------14--------------------------------------|

E|---------------------------------------15|
B|----------13-12-13------13-12-----12-15--|
G|------9-12--------14--14-----14-12-------|
D|-12-10--------------14-------------------|

E|-15-13-13-12-13-12--------15--15-13-13-12-13-12----------|
B|------------------15-13-12----------------------15-13-12-|
FIN DE 1° PARTE DEL ARPEGIO




Esta 2° parte del arpegio es la melodia del la letra haciendo un punteo,
no tengo idea como
se llama esa figura asi que care palo le puse D HUE 1, 2, 3 y 4.

E|-12*13-13-13-12-------------------------|
B|----------------15-13-13-------12-13-12-| D HUE 1
G|--------------------------14-14---------|

E|-12*13-13-13-12--------------------|
B|---------------15-13-----12-13--12-| D HUE 2
G|--------------------14-14-----14---|

D HUE 3
E|-12*13-13-13-12-------------------------------------------------------------------|
B|----------------15-13-13-13-13-13-13-13-13-13-13-13-13-13-13-13-12-12-12-12-12-12-|

D HUE 4
E|-12*13-13-13-12--------------------------------------------------------------------15-|
B|---------------15-13-13-13-13-13-13-13-13-13-13-13-13-13-13-13------13-12-----12-15---|
G|--------------------------------------------------------------14--14-----14-12--------|
D|----------------------------------------------------------------14--------------------|

F              C  
La vida mágica, ¡ay si! (mario + gabriel)

Am       G   
vamos llevando (gato) =======================> D HUE 1

F              C  
tocar, tocar y tocar (mario + gabriel)

Am       G   
¡Valparaíso soy! [gato]  =====================> D HUE 2

F              C  
tocar, tocar y tocar (mario + gabriel)

 Am       G   
voy por Santiago [gato]  =====================>  D HUE 1

F              C  
tocar, tocar y tocar (mario + gabriel)

Am       G   
¡mágica historia! [gato]  ====================>  D HUE 1

F              C  
tocar, tocar y tocar (mario + gabriel)

Am       G   
Montevideo amé [gato]  =======================>  D HUE 3

F              C  
tocar, tocar y tocar (mario + gabriel)

Am       G   
¡por Buenos Aires! [gato]  ====================>  D HUE 4


final alternativo es el siguiente:

E|-13-13-13-13-13-| esto se repite x5 y en la n°5 hace la siguiente pasada

E|----------------------15|
B|-------13-12-----12-15--|
G|-14--14-----14-12-------|
D|---14-------------------|

E|-13-13-13-13-13-| idem arriba, pero...

E|----------------------------10--10-15-10-15-19-|
B|--------13-12---------12--12--12---------------|
G|--14--14-----14-12--12--12---------------------|
D|----14------------12---------------------------|

(si quieren pueden terminar con un guen zapateo.. ejaléeee)
FINAL

CUALQUIER DUDA, DC AM O Y/O SUGED NCIA BIENVENIDA SEA...
8===3 pa pinocho y todos los torturadores
¡¡ PATRIA O MUERTE, VENCEDM OS!!
Outros vídeos desta música
    288 exibições
      • ½ Tom
      • A
      • Bb
      • B
      • C
      • Db
      • D
      • Eb
      • E
      • F
      • F#
      • G
      • Ab
    • Adicionar à lista

    Afinação da cifra

    Afinador online

      0 comentários

      Ver todos os comentários

      Conseguiu tocar?

      0Tocaram0Ainda não

      Grave um vídeo tocando La Vida Mágica e nos envie!

      Toque também

      1. Imagem do artista Los TresHe Barrido El Sol Los Tres
      2. Imagem do artista Manuel GarciaEl viejo comunista Manuel Garcia
      3. Imagem do artista Joe VasconcellosTú És Maior Joe Vasconcellos
      4. Imagem do artista Inti-IllimaniLa Exiliada Del Sur Inti-Illimani

      Entre para o Cifra Club PRO

      Tenha acesso a benefícios exclusivos no App e no Site

      • Chega de anúncios

      • Badges exclusivas

      • Mais recursos no app do Afinador

      • Atendimento Prioritário

      • Aumente seu limite de lista

      • Ajude a produzir mais conteúdo

      Cifra Club Pro

      Aproveite o Cifra Club com benefícios exclusivos e sem anúncios
      Cifra Club Pro
      Aproveite o Cifra Club com benefícios exclusivos e sem anúncios
      OK