Cifra Club

Assum Preto

Luiz Gonzaga

Cifra: Principal
exibições 138.308
Tom: D
[Intro]

E|-------12--0------12--0------12--0-----------------------|
B|--10--13-----10--13-----10-13-----10---------------------|
G|---------------------------------------------------------|
D|---------------------------------------------------------|
A|---------------------------------------------------------|
E|---------------------------------------------------------|

[Versos]

E|----17--12-15-13-10--13-12-----12-10------------12--0------12--0------12--0---|
B|-------------------12-----13-10-----12-13-10--13-----10--13-----10--13-----10-|
G|------------------------------------------------------------------------------|
D|------------------------------------------------------------------------------|
A|------------------------------------------------------------------------------|
E|------------------------------------------------------------------------------|

         Dm
Tudo em vorta é só beleza
          D7               Gm
Sol de Abril e a mata em frô
              Gm           Dm
Mas Assum Preto, cego dos óio          
             A7                Dm
Num vendo a luz, ai, canta de dor      

    Dm
Tarvez por ignorança
       D7       Gm
Ou mardade das pió
               Gm          Dm
Furaro os óio do Assum Preto           
           A7                Dm
Pra ele assim, ai, cantá de mió        

   Dm
Assum Preto veve sorto
     D7         Gm
Mas num pode avuá
               Gm            Dm
Mil vezes a sina de uma gaiola        
             A7               Dm
Desde que o céu, ai, pudesse oiá     

   Dm
Assum Preto, o meu cantar
   D7                Gm
É tão triste como o teu
             Gm        Dm
Também roubaro o meu amor             
           A7                Dm
Que era a luz, ai, dos óios meu
Acordes para:
    Colaboração e revisão:

    0 comentários

      mostrar mais comentários

      Conseguiu tocar?

      6tocaram0ainda não

      Grave um vídeo tocando Assum Preto e mande pra gente!

      00:00 / 00:00
      outros vídeos desta música
      repetirqualidadeautomática
      Outro vídeos desta música
        00:00 / 00:00
        automática
        OK