Cifra Club

Olha Pro Céu

Luiz Gonzaga

Cifra: Principal
exibições 152.808
Tom: F
[Intro]

                 G     E7  D    B7  Em       A7     D
E|------------------------------------------------------------|
B|-----------------3------------------------------------------|
G|-------0-2-4-3-4-----4-2-1-2-----------4-2-0----------------|
D|-0-2-4-------------------------4-2-1-2-------2-0------------|
A|----------------------------------------------------0--1--0-|
E|--------------------------------------------------4---------|

Dm
Olha pro céu, meu amor
                  D7   Gm
Vê como ele está lindo
C7               F
Olha praquele balão multicor
 Bb      Gm        A7
Como no céu vai sumindo

 D
Foi numa noite, igual a esta
                   Em
Que tu me deste o teu coração
A7            Em
O céu estava, assim em festa
 A7               D
Porque era noite de São João
 Am    C        B7
Havia balões no ar
                Em
Xóte, baião no salão
G        E7
E no terreiro
D        B7    Em      A7
O teu olhar, que incendiou
         D
Meu coração

E|-------------------------------------|
B|-------------------------------------|
G|-------------------------------------|
D|-------------------------------------|
A|---0--1--0---------------------------|
E|-4-----------------------------------|

Olha pro céu...
Acordes para:
    Colaboração e revisão:

    0 comentários

      mostrar mais comentários

      Conseguiu tocar?

      4tocaram0ainda não

      Grave um vídeo tocando Olha Pro Céu e mande pra gente!

      00:00 / 00:00
      outros vídeos desta música
      repetirqualidadeautomática
      Outro vídeos desta música
        00:00 / 00:00
        automática
        OK