Cifra Club

Rapunzels Tangled Adventure - Id Give Anything

Mandy Moore

Cifra: Principal (violão e guitarra)
Selo Cifra Club: esta cifra foi revisada para atender aos critérios oficiais da nossa Equipe de Qualidade.
tom: Em
E|-----------3-------2-----|-------0-----------3-----|
B|---------3-------3-------|-----1---1-------1-------|
G|-------0-------4---------|---2-------2---3---------|
D|-----0-------------------|-------------0-----------|
A|---2---------2-----------|-0-----------------------|
E|-3-----------------------|-------------------------|

[Verse 1]
E|-----------3-------2-----|-------0-----------3-----|-----------3-------2-----|-------0-----------3-----|
B|---------3-------3-------|-----1---1-------1-------|---------3-------3-------|-----1---1-------1-------|
G|-------0-------4---------|---2-------2---3---------|-------0-------4---------|---2-------2---3---------|
D|-----0-------------------|-------------0-----------|-----0-------------------|-------------0-----------|
A|---2---------2-----------|-0-----------------------|---2---------2-----------|-0-----------------------|
E|-3-----------------------|-------------------------|-3-----------------------|-------------------------|

E|-------2-----------0-----|-------0-----------------|-7-----5-----3---0-2-----|-------0-----------0-----|
B|-----3---3-------0-------|-----2---2---------4-----|-----8-----3---0---------|-----2---2---------------|
G|---4-------4---0---------|---0-------0-----5-------|---7---------------------|---0-------0-----5-------|
D|-------------------------|---------------5---------|-5-----4-----2-----0-----|---------------4---------|
A|-2-----------------------|-0-----------3-----------|-------------------------|-3-----------5-----------|
E|-------------0-----------|-------------------------|-------------------------|-------------------------|

E|-7-----5-----3---0-2-----|-0-----0-----3-----2-----|-7-----5-----3-----2-----|-------0-----------------|
B|-----8-----3---0---------|-----2---2-------1-------|-----8-----------0-------|-----2---2---3-----------|
G|---7---------------------|---0-------0---2---------|---7-----------0---------|---0---------------------|
D|-5-----4-----2-----0-----|-------------0-----------|-5-----4-----2-----0-----|---------0h2-5-----4-----|
A|-------------------------|-3-----------------------|-------------------------|-3-----------5-----5-----|
E|-------------------------|-------------------------|-------------------------|-------------------------|

[Verse 2]
E|-----------3-------2-----|-------0-----------3-----|-----------3-------2-----|-------0-----------3-----|
B|---------3-------3---3---|-----1---1-------1---1---|---------3-------3---3---|-----1---1-------1---1---|
G|-------0-------4-------4-|---2-------2---3-------3-|-------0-------4-------4-|---2-------2---3-------3-|
D|-----0-------------------|-------------0-----------|-----0-------------------|-------------0-----------|
A|---2---------2-----------|-0-----------------------|---2---------2-----------|-0-----------------------|
E|-3-----------------------|-------------------------|-3-----------------------|-------------------------|

E|-------2-----------0-----|-------0-----------------|-7-----5-----3-----2-----|-------0-----------0-----|
B|-----3---3-------0---0---|-----2---2---------4-----|-----8-----------0-------|-----2---2---------------|
G|---4-------4---0-------0-|---0-------0-----5-------|---7-----------0---------|---0-------0-----5-------|
D|-------------------------|---------------5---------|-5-----4-----2-----0-----|---------------4---------|
A|-2-----------------------|-0-----------3-----------|-------------------------|-3-----------5-----------|
E|-------------0-----------|-------------------------|-------------------------|-------------------------|
                                                                               [Outro]
E|-7-----5-----3-----2-----|-------0-----------3-----|-3-----3-----3-----3-----|-0-----------------2-----|
B|-----8-----------0-------|-----2---2-------1---2---|-0---0-----------0-------|-------3-----1-----3-----|
G|---7-----------0---------|---0-------0---3-------3-|-0-0-----------0---------|-----5-----4-----2-2-----|
D|-5-----4-----2-----0-----|-------------0-----------|-2-----------0-----0-----|---5-----4-----2---0-----|
A|-------------------------|-3-----------------------|-------------------------|-3-----2-----0-----------|
E|-------------------------|-------------------------|-0-----------------------|-------------------------|

E|-7-----5-----3-----2-----|-0-----0-----2-----------|-3-----------------------|
B|-----8-----------0-------|-----2-------3-----------|-3-----------------------|
G|---7-----------0---------|---0---------2-----------|-0-----------------------|
D|-5-----4-----2-----0-----|-------------0-----------|-0-----------------------|
A|-------------------------|-3-----------------------|-2-----------------------|
E|-------------------------|-------------------------|-3-----------------------|

*********************
| h   Hammer-on
*********************


[Intro]
G   Bm    Am   D7


[Verse 1]
G             Bm
 I know we've grown apart
    Am                    D7
 It breaks my heart in two
G            Bm
 I miss your company
     Am              D7
 The closeness we once knew
Bm          Em
 I won't pretend to know
      A7                       Cm6
 Just what you're going through
     G   D/F# Em D         C     D9    
 But I'd give anything for you
      G   D/F# Em D        C      D7sus4  D7            G  D/F#  Em  D  C   Dsus4 D
 Yes, I'd give anything to relive every - thing with you


[Verse 2]
G          Bm                  Am             D7
 So if you find that you're in darkness or despair
G                 Bm
 Though you won't turn to me
        Am                D7
 Please know I'll be right there
Bm        Em 
 Name any sacrifice
      A7                      Cm6      
 I'll pay the price that's due
        G   D/F# Em D         C     D9   
 'Cause I'd give anything for you
      G   D/F# Em D        C      D            Em     G/D
 Yes, I'd give anything to relive everything we knew


[Outro]
      C   G/B  Am D
 Yes, I'd give anything
     G  D/F#  Em  D  C   D   G
 For you
Outros vídeos desta música
      • ½ Tom
      • Am
      • Bbm
      • Bm
      • Cm
      • C#m
      • Dm
      • Ebm
      • Em
      • Fm
      • F#m
      • Gm
      • G#m
    • Adicionar à lista

    Afinação da cifra

    Afinador online

      0 comentários

      Ver todos os comentários

      Entre para o Cifra Club PRO

      Tenha acesso a benefícios exclusivos no App e no Site

      • Chega de anúncios

      • Mais recursos no app do Afinador

      • Atendimento Prioritário

      • Aumente seu limite de lista

      • Ajude a produzir mais conteúdo

      Cifra Club Pro

      Aproveite o Cifra Club com benefícios exclusivos e sem anúncios
      Cifra Club Pro
      Aproveite o Cifra Club com benefícios exclusivos e sem anúncios
      OK