Cifra Club

Tangled The Series - Wind In My Hair Reprise

Mandy Moore

Cifra: Principal (violão e guitarra)
Selo Cifra Club: esta cifra foi revisada para atender aos critérios oficiais da nossa Equipe de Qualidade.
tom: Am
E|-3-------3-------------------------|-3-------3-------------------------|
B|-------1-------1-0-----------------|-------1-------1-0-----------------|
G|----0-------0------------0---------|----0-------0------------0---------|
D|-3-------2-------------0-----------|-3-------2-------------0-----------|
A|--------------------2--------------|--------------------2--------------|
E|-----------------3-----------------|-----------------3-----------------|
[Verse 1]
E|-3-------3-------------------------|-3-------3-------------------------|
B|-------1-------1-0-----------------|-------1-------1-0-----------------|
G|----0-------0------------0-----0---|----0-------0------------0---------|
D|-3-------2-------------0----0------|-3-------2-------------0----0------|
A|--------------------2--------------|--------------------2--------------|
E|-----------------3-----------------|-----------------3-----------------|

E|---------0-----0-2-----2-3-----3---|-----------------3-----3---3-------|
B|-3-----3-----1-------3-------0-----|-1-----1-3-----3-----3-----3-------|
G|-4---4-----0-------2-------0-------|-----0-------0-----2-----2-2-------|
D|-4-4-------------0---------------0-|---2-------0-----0---------0-------|
A|-2-------3-------------------------|-0-------2-------------------------|
E|-------------------------0---------|-----------------------------------|
[Pre Chours]
E|-3-----3---------3-----3-----------|
B|-----1---------------1---0---------|
G|---0---------------0---------------|
D|(3)-----(2)-----(1)-----(0)--------|
A|-----------------------------------|
E|-----------------------------------|
(Notes in brackets played by bass)


[Intro]
Bbsus2   F/A   C
Bbsus2   F/A   C


[Verse 1]
        Bbsus2     F/A          C
Back to life after happily ever after
        Bbsus2     F/A                C
Stuck inside once again and I'm gazing out
          Em           F
True, I'm in here with those I hold dear
  G                 Am
Surrounded by their love
Dm7                  C/E
And for some, that's more than enough
   Gsus4
No doubt


[Pre Chorus]
Bbsus2   F/A   Fm/Ab   C/G
Dm7      C/E   Fm7     Bbsus2


[Chorus]
    C                    Am7                 F
But I got the wind in my hair and a fire within
                           C/G    G
'Cause there's something beginn - ing
C                  Am7                     F
I got a mystery to solve and excitement to spare
     Am                       Fadd9
That beautiful breeze blowing through
    Am                 Fadd9      C
I'm ready to follow it who knows where
                      G
And I'll get there, I swear
                    C    Am7    F    C/G G
With the wind in my hair
Outros vídeos desta música
    7 exibições
      • ½ Tom
      • Am
      • Bbm
      • Bm
      • Cm
      • C#m
      • Dm
      • Ebm
      • Em
      • Fm
      • F#m
      • Gm
      • G#m
    • Adicionar à lista

    Afinação da cifra

    Afinador online

      0 comentários

      Ver todos os comentários

      Entre para o Cifra Club PRO

      Tenha acesso a benefícios exclusivos no App e no Site

      • Chega de anúncios

      • Badges exclusivas

      • Mais recursos no app do Afinador

      • Atendimento Prioritário

      • Aumente seu limite de lista

      • Ajude a produzir mais conteúdo

      Cifra Club Pro

      Aproveite o Cifra Club com benefícios exclusivos e sem anúncios
      Cifra Club Pro
      Aproveite o Cifra Club com benefícios exclusivos e sem anúncios
      OK