Cifra Club

Warriors of The World United

Manowar

Cifra: Principal (violão e guitarra)
tom: C
Intro a
e|4/~~~~~~~/8^\~~~~~~\6-14b\3----------------------------------|
B|x-------------------x----------------------------------------|
G|x-------------------x----------------------------------------|
D|x-------------------x-------7~~~~~~~~~~~~~~~0~~~~~~~~~~~~~7\-|
A|x-------------------x-------0~~~~~~~~~~~~~~~0~~~~~~~~~~~~~0\-|
D|2/~~~~~~~/6^\~~~~~~\4-12b\0/7~~~~~~~~~~~~~~~0~~~~~~~~~~~~~7\

Intro b
E|--------------------------------------------------------|
B|--------------------------------------------------------|
G|--------------------------------------------------------|
D|0-0000000-0000007\0000000-000-000-000-000-000-007~~~~~~-|
A|----------------0\------------------------------0~~~~~~-|
D|0-0000000-0000007\0000000-000-000-000-000-000-007~~~~~~-|
  . ....... ......  ....... ... ... ... ... ... ..

Intro c
E|------------------11^\~~~~~\5------------------------------------|
B|-----------------------------------------------------------------|
G|-----------------------------------------------------------------|
D|1311~~~~~~~~~~~~~~-----------0/~~~~~/7~~~~7777777-777-777-777-77-|
A|-----------------------------0~~~~~~~~~~~~0000000-000-000-000-00-|
D|1311~~~~~~~~~~~~~~-----------0/~~~~~/7~~~~7777777-777-777-777-77-|
                                            ....... ... ... ... ..

Intro d
E|-------------------------------------------------------|
B|-------------------------------------------------------|
G|-------------------------------------------------------|
D|1311~~~~~~~~~~~~~~14141414\11111111~~~~131313139999~~~~
A|1311~~~~~~~~~~~~~~0-0-0-0--8-8-8-8~~~~~0-0-0-0-9999~~~~
D|1311~~~~~~~~~~~~~~14141414\11111111~~~~131313139999~~~~

Intro e
E|---------------------------------------------------|
B|---------------------------------------------------|
G|---------------------------------------------------|
D|7~~~141211~~~~~~141414\11111111~~~~131313139999~~~~
A|0~~~0-129~~~~~~~0-0-0--8-8-8-8~~~~~0-0-0-0-9999~~~~
D|7~~~141211~~~~~~141414\11111111~~~~131313139999~~~~

Intro f
E|---------------8b\~~~~~~\----------------|
B|---------------x-------------------------|
G|---------------x-------------------------|
D|7~~~0711~~~~~~~x-------------------------|
A|0~~~0711~~~~~~~x-------------------------|
D|7~~~0711~~~~~~~6b\~~~~~~\----------------|

Verse Ia
E|-------------------------------------------------------------------|
B|-------------------------------------------------------------------|
G|-------------------------------------------------------------------|
D|----------------------------------------------------------------79-|
A|----------------------------------------------------------------00-|
D|----------------------------------------------------------------79-|

Verse Ib
E|------------------------------------------------------------------|
B|------------------------------------------------------------------|
G|------------------------------------------------------------------|
D|11000-000-000-000-000-000-000-007-777-777-777-777-777-777-777-770-|
A|0-------------------------------0-000-000-000-000-000-000-000-00--|
D|11000-000-000-000-000-000-000-007-777-777-777-777-777-777-777-770-|
    ... ... ... ... ... ... ... ... ... ... ... ... ... ... ... ...

Verse Ic
E|------------------------------------------------------------|
B|------------------------------------------------------------|
G|------------------------------------------------------------|
D|000-000-000-000-000-000-000-007-777-777-777-777-777-777-777-|
A|------------------------------0-000-000-000-000-000-000-000-|
D|000-000-000-000-000-000-000-007-777-777-777-777-777-777-777-|
  ... ... ... ... ... ... ... ... ... ... ... ... ... ... ...

Chorus Ia
E|----------------------------------|
B|----------------------------------|
G|----------------------------------|
D|141414\11111111~~~~~1313139999~~~~
A|0-0-0--8-8-8-8~~~~~~0-0-0-9999~~~~
D|141414\11111111~~~~~1313139999~~~~

Chorus Ib
E|------------------------------------------------------|
B|------------171717\-----------------------------------|
G|------------212121\-----------------------------------|
D|7~~~141211~~-------141414\11111111~~~~~1313139999~~~~-|
A|0~~~0-129~~~-------0-0-0--8-8-8-8~~~~~~0-0-0-9999~~~~-|
D|7~~~141211~~-------141414\11111111~~~~~1313139999~~~~-|

Chorus Ic
E|----------------------|
B|----------------------|
G|----------------------|
D|7~~~0711\~\000-000-000
A|0~~~0711\~\-----------
D|7~~~0711\~\000-000-000

Verse IIa
E|----------------------------------------------------------------|
B|----------------------------------------------------------------|
G|----------------------------------------------------------------|
D|000-000-000-000-000-000-000-007-777-777-777-777-777-777-777-770-|
A|------------------------------0-000-000-000-000-000-000-000-00--|
D|000-000-000-000-000-000-000-007-777-777-777-777-777-777-777-770-|
  ... ... ... ... ... ... ... ... ... ... ... ... ... ... ... ...

Verse IIb
E|----------------------------------------------------------------|
B|----------------------------------------------------------------|
G|----------------------------------------------------------------|
D|000-000-000-000-000-000-000-007-777-777-777-777-777-777-777-770-|
A|------------------------------0-000-000-000-000-000-000-000-00--|
D|000-000-000-000-000-000-000-007-777-777-777-777-777-777-777-770-|
  ... ... ... ... ... ... ... ... ... ... ... ... ... ... ... ...

Verse IIc
E|----------------------------------------------------------------|
B|----------------------------------------------------------------|
G|----------------------------------------------------------------|
D|000-000-000-000-000-000-000-007-777-777-777-777-777-777-777-770-|
A|------------------------------0-000-000-000-000-000-000-000-00--|
D|000-000-000-000-000-000-000-007-777-777-777-777-777-777-777-770-|
  ... ... ... ... ... ... ... ... ... ... ... ... ... ... ... ...

Verse IId
E|--------------------------------------------------------|
B|--------------------------------------------------------|
G|--------------------------------------------------------|
D|000-000-000-000-000-000-000-007-777-777-777-777-777-7---|
A|------------------------------0-000-000-000-000-000-0---|
D|000-000-000-000-000-000-000-007-777-777-777-777-777-7---|
  ... ... ... ... ... ... ... ... ... ... ... ... ... .

Chorus IIa
E|----------------------------------|
B|----------------------------------|
G|----------------------------------|
D|141414\11111111~~~~~1313139999~~~~
A|0-0-0--8-8-8-8~~~~~~0-0-0-9999~~~~
D|141414\11111111~~~~~1313139999~~~~

Chorus IIb
E|------------------------------------------------------|
B|------------------------------------------------------|
G|----------------21\-----------------------------------|
D|7~~~141211~~--19---141414\11111111~~~~~1313139999~~~~-|
A|0~~~0-129~~~16-----0-0-0--8-8-8-8~~~~~~0-0-0-9999~~~~-|
D|7~~~141211~~-------141414\11111111~~~~~1313139999~~~~-|

Chorus IIc
E|----------------------|
B|----------------------|
G|----------------------|
D|7~~~0711~\~\----------|
A|0~~~0711~\~\----------|
D|7~~~0711~\~\----------|

Chorus IIIa
E|----------------------------------|
B|----------------------------------|
G|----------------------------------|
D|141414\11111111~~~~~1313139999~~~~
A|0-0-0--8-8-8-8~~~~~~0-0-0-9999~~~~
D|141414\11111111~~~~~1313139999~~~~

Chorus IIIb
E|------------------------------------------------------|
B|------------------------------------------------------|
G|----------------21\-----------------------------------|
D|7~~~141211~~--19---141414\11111111~~~~~1313139999~~~~-|
A|0~~~0-129~~~16-----0-0-0--8-8-8-8~~~~~~0-0-0-9999~~~~-|
D|7~~~141211~~-------141414\11111111~~~~~1313139999~~~~-|

Chorus IIIc
E|------21\~~~~~\1-|
B|-----------------|
G|-----------------|
D|7~~~07-----------|
A|0~~~07-----------|
D|7~~~07-----------|

Chorus IVa
E|----------------------------------|
B|----------------------------------|
G|----------------------------------|
D|141414\11111111~~~~~1313139999~~~~
A|0-0-0--8-8-8-8~~~~~~0-0-0-9999~~~~
D|141414\11111111~~~~~1313139999~~~~

Chorus IVb
E|------------------------------------------------------|
B|------------------------------------------------------|
G|------------19\~~~\-----------------------------------|
D|7~~~141211~~-------141414\11111111~~~~~1313139999~~~~-|
A|0~~~0-129~~~-------0-0-0--8-8-8-8~~~~~~0-0-0-9999~~~~-|
D|7~~~141211~~-------141414\11111111~~~~~1313139999~~~~-|

Chorus IVc
E|----------------|
B|----------------|
G|----------------|
D|7~~~0711~~~~~~~~
A|0~~~0711~~~~~~~~
D|7~~~0711~~~~~~~~

Chorus Va
E|----------------------------------|
B|----------------------------------|
G|----------------------------------|
D|141414\11111111~~~~~1313139999~~~~
A|0-0-0--8-8-8-8~~~~~~0-0-0-9999~~~~
D|141414\11111111~~~~~1313139999~~~~

Chorus Vb
E|-----------------------------------------------------------|
B|--------20--------20---------------------------------------|
G|------------19^^^^----18^^^^-------------------------------|
D|7~~~1412--15--------16------14\11111111~~~~~1313139999~~~~-|
A|0~~~0-12--------------------0--8-8-8-8~~~~~~0-0-0-9999~~~~-|
D|7~~~1412--------------------14\11111111~~~~~1313139999~~~~-|

Chorus Vc
E|------21\~~~~~\1-|
B|-----------------|
G|-----------------|
D|7~~~07-----------|
A|0~~~07-----------|
D|7~~~07-----------|

Chorus VIa
E|----------------------------------|
B|----------------------------------|
G|----------------------------------|
D|141414\11111111~~~~~1313139999~~~~
A|0-0-0--8-8-8-8~~~~~~0-0-0-9999~~~~
D|141414\11111111~~~~~1313139999~~~~

Chorus VIb
E|-------------------------------------|
B|-------------------------------------|
G|--------19^^----------19^^-----------|
D|7~~~1412----18^^16^^^^----18^^16^^---|
A|0~~~0-12-----------------------------|
D|7~~~1412-----------------------------|
Composição de Joey DeMaio
Colaboração e revisão:
  • Rafael Bazacas
  • alexandre
13.029 exibições
    • ½ Tom
    • A
    • Bb
    • B
    • C
    • Db
    • D
    • Eb
    • E
    • F
    • F#
    • G
    • Ab
  • Adicionar à lista

    0 comentários

    Ver todos os comentários

    Conseguiu tocar?

    0 Tocaram 0 Ainda não

    Grave um vídeo tocando Warriors of The World United e nos envie!

    00:00 / 00:00
    Outros vídeos desta música
    Repetir Qualidade Automático
    Outros vídeos desta música
    00:00 / 00:00
    Automático

    Cifra Club Pro

    Aproveite o Cifra Club com benefícios exclusivos e sem anúncios
    Cifra Club Pro
    Aproveite o Cifra Club com benefícios exclusivos e sem anúncios
    OK