Cifra Club

Hand Of Doom

Manowar

Cifra: Principal (violão e guitarra)
tom: G
. paml mute


Intro
e|-------------------------|
B|-------------------------|
G|-------------------------|
D|-------------------------|
A|-------------------------|
E|-0-0-0-0-0-0-0-0-0-0-0-0-|
   . . . . . . . . . . . .  
               
Riff 1A
e|---------|------------|------------|
B|---------|------------|------------|
G|---------|------------|------------|
D|-5--4--7-|-5--4--7--9-|-5--4--9--7-|
A|-5--4--7-|-5--4--7--9-|-5--4--9--7-|
E|-3--2--5-|-3--2--5--7-|-3--2--7--5-|
                                     
Riff 1B
e|-------------------------------------------|
B|-------------------------------------------|
G|-------------------------------------------|
D|-5--4--7--------------5-5--------------5-5-|
A|-5--4--7--------------5-5--------------5-5-|
E|-3--2--5-555555555555-3-3-555555555555-3-3-|
           ............     ............     

Verse riff
e|------------------------------------------------------------------
B|------------------------------------------------------------------
G|------------------------------------------------------------------
D|------------------------------------------------------------------
A|------------------------------------------------------------------
E|-0-0-0-0-0-0-0-0-0-0-0-0-0-0-0-0-0-0-0-0-0-0-0-0-0-0-0-0-0-0-0-0--
   . . . . . . . . . . . . . . . . . . . . . . . . . . . . . . . .  
-----------------------------------------------------------------|
-----------------------------------------------------------------|
-----------------------------------------------------------------|
-----------------------------------------------------------------|
-3-3-3-3-3-3-3-3-3-3-3-3-3-3-3-3---------------------------------|
---------------------------------0-0-0-0-0-0-0-0-0-0-0-0-0-0-0-0-|
 . . . . . . . . . . . . . . . . . . . . . . . . . . . . . . . .  
Riff 1C
e|-----------------------------------------------------------------------------|
B|-----------------------------------------------------------------------------|
G|-----------------------------------------------------------------------------|
D|-5--4--7--------------5-5--------------5-5--------------5-5--------------5-5-|
A|-5--4--7--------------5-5--------------5-5--------------5-5--------------5-5-|
E|-3--2--5-555555555555-3-3-555555555555-3-3-555555555555-3-3-555555555555-3-3-|
           ............     ............     ............     ............

Riff 2A
e|------------------|------------------|------------------|-----------------|
B|------------------|------------------|------------------|-----------------|
G|------------------|------------------|------------------|-----------------|
D|------------------|------------------|------------------|-----------------|
A|------------------|------------------|-3333333333333333-|-----------------|
E|-0000000000000000-|-0000000000000000-|------------------|-0000000000000000|
   ................   ................   ................   ................
Riff 2B
e|------------------|------------------|------------------|---|
B|------------------|------------------|------------------|---|
G|------------------|------------------|------------------|---|
D|------------------|------------------|------------------|-2-|
A|------------------|------------------|-3333333333333333-|-2-|
E|-0000000000000000-|-0000000000000000-|------------------|-0-|
   ................   ................   ................
Riff 3
e|---------|------------|------------|---------|------|
B|---------|------------|------------|---------|------|
G|---------|------------|------------|---------|------|
D|-5--4--7-|-5--4--7--9-|-5--4--9--7-|-5--4--7-|-9--7-|
A|-5--4--7-|-5--4--7--9-|-5--4--9--7-|-5--4--7-|-9--7-|
E|-3--2--5-|-3--2--5--7-|-3--2--7--5-|-3--2--5-|-7--5-|

Riff 1D
e|---------|
B|---------|
G|---------|
D|-5--4--7-|
A|-5--4--7-|
E|-3--2--5-|

Riff 1E
e|---------------------------------------------------------------------|
B|---------------------------------------------------------------------|
G|---------------------------------------------------------------------|
D|--------------5-5--------------5-5--------------5-5--------------5-5-|
A|--------------5-5--------------5-5--------------5-5--------------5-5-|
E|-555555555555-3-3-555555555555-3-3-555555555555-3-3-555555555555-3-3-|
   ............     ............     ............     ............


ESTRUTURA:
Intro: 2x
Riff 1A: 1x
Riff 1B: 1x
Verse riff: 4x
Riff 1A: 1x
Riff 1B: 1x
Verse riff: 4x
Riff 1A: 1x
Riff 1C: 1x
Para o solo, tocar o "Verse Riff" 4x
Riff 1A: 1x
Riff 1C: 1x
Riff 2A: 2x
Riff 2B: 1x
Riff 3: 2x
Riff 1A: 1x
Riff 1D: 1x
Riff 1E: tocar até o fim da música
Composição de Joey DeMaio
3.212 exibições
    • ½ Tom
    • A
    • Bb
    • B
    • C
    • Db
    • D
    • Eb
    • E
    • F
    • F#
    • G
    • Ab
  • Adicionar à lista

    0 comentários

    Ver todos os comentários

    Conseguiu tocar?

    0 Tocaram 0 Ainda não

    Grave um vídeo tocando Hand Of Doom e nos envie!

    00:00 / 00:00
    Outros vídeos desta música
    Repetir Qualidade Automático
    Outros vídeos desta música
    00:00 / 00:00
    Automático

    Cifra Club Pro

    Aproveite o Cifra Club com benefícios exclusivos e sem anúncios
    Cifra Club Pro
    Aproveite o Cifra Club com benefícios exclusivos e sem anúncios
    OK