Cifra Club

Bridge Of Death

Manowar

Cifra: Principal (violão e guitarra)
Selo Cifra Club: esta cifra foi revisada para atender aos critérios oficiais da nossa Equipe de Qualidade.
tom: C
Obs.: The song is not totaly tabbled, after the 'Devil's speech' (Dark lord,
I summon thee...) there's a part (I know the one who...) which is not here,
if you know how to play this part, or if you have the solo or any correction, 
please send to me by e-mail. Hail to all the brothers of metal all over the 
world and at Brazil !!!

Intro:                               This part is very confused, but the
(is played three times)              notes are here
e|-1-1-1-1-1-1-1-1-0-0-0-0-0-0-0-0--|----0-----01-----1-----1-----0-----0--|
b|-3-3-3-3-3-3-3-3-3-3-3-3-2-2-2-2--|---2-2---2--3---3-3---3-3---2-2---2---|
g|-2-2-2-2-2-2-2-2-2-2-2-2-2-2-2-2--|--2---2-2----2-2---2-2---2-2---2-2---o|
D|-0-0-0-0-0-0-0-0-0-0-0-0-0-0-0-0--|-0-----0------0-----0-----0-----0----o|
A|----------------------------------|--------------------------------------|
E|----------------------------------|--------------------------------------|

'Slowly crossing as the river...'
e|-1------1-------1-------1-------1-0-------0-------0-------------0--------|
b|-3----3---3---3---3---3---3---3-----3---3---3---3---3---3-2---2---2---2--|
g|---2--------2-------2-------2---------2-------2-------2-----2-------2----|
D|-------------------------------------------------------------------------|
A|-------------------------------------------------------------------------|
E|-------------------------------------------------------------------------|
               Two times:
                                  He calls my...     And waves me on.
e|-0-3/0------|------------------------------------------------------------|
b|-------2----|------------------------------------------------------------|
g|---------2--|------------------------------------------------------------|
D|------------|--------------7-7-7-----------------------------------------|
A|------------|--2-3-5-3-2---5-5-5--------------5-5-5----------------------|
E|------------|---------------------------------3-3-3----------------------|

                                           Four times:
e|-------------------------------|--------|--------------------------------|
b|-------------------------------|--------|--------------------------------|
g|-------------------------------|--------|--------------------------------|
D|-7-7-7-----5-5-5-----7-7-7-5-7-|--X-X-X-|-----7-7-7-5-7-X-X-X------------|
A|-5-5-5--8--3-3-3--7--5-5-5-3-5-|--X-X-X-|-----5-5-5-3-5-X-X-X------------|
E|--------6---------5------------|--------|--------------------------------|

  'Well the life that he has given...'
e|-----|-------------------------------------------------------------------|
b|-----|-------------------------------------------------------------------|
g|-----|------------------------------------------------------------------o|
D|-2-5-|-7-7-7-5-7--X-X-X----------------X-5--7-7-7-5-7--X-X-X--5------5--o|
A|-0-3-|-5-5-5-3-5--X-X-X--5-5-5-3-5--X--X-3--5-5-5-3-5--X-X-X--3------3---|
E|-----|-------------------3-3-3-1-3--X------------------------------------|

  Base to the solo:                                      Two times, and back
  Four times:       Then...:                             to the solo's base.
e|-----------------|------------------------------------|------------------|
b|-----------------|------------------------------------|------------------|
g|-----------------|------------------------------------|------------------|
D|-7-7-7-5-7-X-X-X-|------------------------------------|-7-7-7-5-7-X-X-X--|
A|-5-5-5-3-5-X-X-X-|-5-5-5-3-5-X-X-X-5-5-5-7-8--5-7-8-7-|-5-5-5-3-5-X-X-X--|
E|-----------------|-3-3-3-1-3-X-X-X-3-3-3-5-6--3-5-6-5-|------------------|

  'Dark lord, I summon thee...'              'He is my provider...'
e|--------------------------------------|---|------------------------------|
b|--------------------------------------|---|------------------------------|
g|-------------------------------------o|---|------------------------------|
D|----------2-----------5-----------3--o|-2-|-7-7-7-5-7-X-X-X--------------|
A|-2-3-5-3--0--2-3-5-3--3--2-3-5-3--1---|-0-|-5-5-5-3-5-X-X-X--5-5-5-3-5---|
E|-0-1-3-1-----0-1-3-1-----0-1-3-1------|---|------------------3-3-3-1-3---|

  'As I walk into the Void...'             Final part:
e|---------------------------------------|---------------------------------|
b|---------------------------------------|---------------------------------|
g|---------------------------------------|---------------------------------|
D|----------X-5--7-7-7-5-7-X-X-X--5---5--|--7-7-7-5-7-X-X-X----------------|
A|-5-7-8-7--X-3--5-5-5-3-5-X-X-X--3---3--|--5-5-5-3-5-X-X-X----------------|
E|-3-5-6-5-------------------------------|---------------------------------|

Chords:

Dm                                D#2   D#2/Db
Slowly crossing as the river runs below
Dm                                          D#2  D#2/Db
Never stopping for what's waiting soon will show
Dm                                              D#2  D#2/Db
And this the last time looking back I'll see my home
Dm                               D#2  D#2/Db
For he awaits me reaching for my soul
D5                 G5                D5 Bb5 C5 A5 D5 C5 D5
  He calls my name,  and waves me on
D5              G5                   D5 Bb5 C5 A5 D5 C5 D5
  The fallen one  he stands in flame

A5   F5  D5           C5  D5
Well the life that he has given
G5             F5  G5
Full of riches and sucess
D5          C5          D5               C5  C5
Has a price that I made good in blood to pay.
And the light he now is showing to guide my every footstep
Is insurance if I falter on my way.
And what God has now forsaken and man has never seen
Are the riches of the underworld below
All my years of earthly pleasures gave support unto the bridge
I now cross it giving him my soul

E5 F5 G5 F5 A5                          E5 F5 G5 F5 C5
               Dark Lord, I summon thee
                                           E5 F5 G5 F5 Bb5
Demanding the sacred right to burn in hell,
Ride up on hells hot wind.
Face one more evil than thou, take my lustful soul,
Drink my blood as I drink yours, impale me on the horns of death
Cut off my head release all my evil
Lucifer is king Praise Satan

I know the one who waits
Satan is his name
Across the bridge of death
There he stands in flame
I know the one who waits
Satan is his name across the bridge of death
There he stands in flame.

He is my provider as I walk into the Void
For eternity I give him my soul
I shall do his bidding obey him without question 
Even walk among the living if I'm told

Satan don't forsake me I wait for you to take me 
                                              D5 C5 D5
Grant me wings and as your messenger I'll fly
Outros vídeos desta música
    2.583 exibições
      • ½ Tom
      • A
      • Bb
      • B
      • C
      • Db
      • D
      • Eb
      • E
      • F
      • F#
      • G
      • Ab
    • Adicionar à lista

    Afinação da cifra

    Afinador online

      0 comentários

      Ver todos os comentários

      Entre para o Cifra Club PRO

      Tenha acesso a benefícios exclusivos no App e no Site

      • Chega de anúncios

      • Badges exclusivas

      • Mais recursos no app do Afinador

      • Atendimento Prioritário

      • Aumente seu limite de lista

      • Ajude a produzir mais conteúdo

      Cifra Club Pro

      Aproveite o Cifra Club com benefícios exclusivos e sem anúncios
      Cifra Club Pro
      Aproveite o Cifra Club com benefícios exclusivos e sem anúncios
      Ops (: Contenido disponible sólo en portugués.
      OK