Cifra Club

A Lenda do Herói Fase 3

Marcos Castro

Cifra: Principal (violão e guitarra)
Selo Cifra Club: esta cifra foi revisada para atender aos critérios oficiais da nossa Equipe de Qualidade.
tom: G
Tela inicial do jogo:

   Em           D         C               D                 Em
E|-0---0--3--4--5---3--0--3-3-3-3-3-3-3-3-5-5-5-5-5-5-5-----0-|
B|------------------------5-5-5-5-5-5-5-5-7-7-7-7-7-7-7-7-----|
G|------------------------------------------------------------|
D|------------------------------------------------------------|
A|------------------------------------------------------------|
E|------------------------------------------------------------|

Luta contra o macaco:

 A nota Ré fica ressoando do começo da música até o acorde F# onde vira um Fá#

   Bm    D      G      D                       Bm  D      G      D      F#
E|----------7-5-7--5-3-5------------------------------7-5-7--5-3-5--3-2-6-|
B|------------------------------------------------------------------------|
G|-11-4--7------4---------12-11-9-11-12-11-9-7--4--7------4---------------|
D|------------------------------------------------------------------------|
A|-9--2--5----------------------7-9--10-9--7-5--2--5----------------------|
E|------------------------------------------------------------------------|

Caindo no buraco:

  Bm                                                                       D                 E

E|-19-19-19-19-19-19-17-17-17-17-17-17-15-15-15-15-15-15-14-14-14-14-14-14-12-12-12-12-12----0-|
B|-22-22-22-22-22-22-20-20-20-20-20-20-19-19-19-19-19-19-17-17-17-17-17-17-15-15-15-15-15-15---|
G|---------------------------------------------------------------------------------------------|
D|---------------------------------------------------------------------------------------------|
A|---------------------------------------------------------------------------------------------|
E|---------------------------------------------------------------------------------------------|

F#m             G#
Onde estou? Onde fui parar?
F#m                     G#
Eu não reconheço esse lugar
A                       G#
Eu estou perdido em meio à escuridão
A                          G#
Mas vou prosseguir minha missão
F#m                  G#
Olho para frente e vejo uma tocha acesa
F#m                     G#
Talvez tenha sido a princesa
A                          G#
Uso minha espada que não é feita de madeira
A                       G#
Mas que pega fogo de primeira
A                   G#
Essa porta tem exatamente a minha altura
F#m                     G#
Dentro dela há uma sepultura
A                    B                            F#m           C#
Ando e vasculho tudo abro a arca e encontro um escudo
F#m                G#
Como assim?Mas que maldição!
F#m                            G#
Acho que estou dentro de um Vulcão
A                           G#
Desço pela lava quente e enfrento o pior
A                     G#
Sem cair um pingo de suor
F#m                       G#
Saio dessa Plataforma e então no solo eu chego
F#m                     G#
Enfrentando aranhas e morcegos
A               G#
Uma estalactite cai neste momento
A                        G#
Sinto que previu meu movimento
A                         G#
Com meu novo escudo agora vou me defender
F#m                    G#
Esse é meu mais novo poder
A                          B                       F#m          C#
Não há mais pra onde andar devo então na água me jogar
F#m              E                   B
Eu começo a afundar e vejo então passar
                  D
minha vida num olhar
    F#m
pensei
                      E                    B
se o escudo então trocar eu posso então boiar
                    D                  C#
e no outro lado chegar e assim que eu saí
                                        F#m
A caverna começa a ruir mas não vou desistir
                      G#                 B      F#5
A princesa precisa de mim e eu vou lutar até o fim

Big Boss:

  Guitarra 1

   F#m                                D
E|-2-2-2-2-2-2-2-2-2-2-2-2-2-2-2-2-2-:------------------------------------|
B|-----------------------------------:-3-3-3-3-3-3-3-3-3-3-3-3-3-3-3-3-3--|
G|-----------------------------------:------------------------------------|
D|-----------------------------------:------------------------------------|
A|-----------------------------------:------------------------------------|
E|-----------------------------------:------------------------------------|

   D#                                 D
E|-----------------------------------:------------------------------------|
B|-4-4-4-4-4-4-4-4-4-4-4-4-4-4-4-4-4-:-3-3-3-3-3-3-3-3-3-3-3-3-3-3-3-3-3--|
G|-----------------------------------:------------------------------------|
D|-----------------------------------:------------------------------------|
A|-----------------------------------:------------------------------------|
E|-----------------------------------:------------------------------------|

   D#                                 D
E|-----------------------------------:------------------------------------|
B|-4-4-4-4-4-4-4-4-4-4-4-4-4-4-4-4-4-:-3-3-3-3-3-3-3-3-3-3-3-3-3----------|
G|-----------------------------------:------------------------------------|
D|-----------------------------------:------------------------------------|
A|-----------------------------------:------------------------------------|
E|-----------------------------------:------------------------------------|

   E
E|----------------------------------------------------------------------|
B|-5-5-5-5-5-5-5-5-5-5-5-5-5-5-5-5-7------------------------------------|
G|----------------------------------------------------------------------|
D|----------------------------------------------------------------------|
A|----------------------------------------------------------------------|
E|----------------------------------------------------------------------|

        Guitarra 2(ela entra no segundo D)

    D
E|-10----10----10----10----10----10----10----10----10----10----10---|
B|----10----10----10----10----10----10----10----10----10----10------|
G|------------------------------------------------------------------|
D|------------------------------------------------------------------|
A|------------------------------------------------------------------|
E|------------------------------------------------------------------|

    D#
E|-11----11----11----11----11----11----11----11----11----11----11---|
B|----11----11----11----11----11----11----11----11----11----11------|
G|------------------------------------------------------------------|
D|------------------------------------------------------------------|
A|------------------------------------------------------------------|
E|------------------------------------------------------------------|

    D                             E
E|-14-10----------14-10----------:-16-12-----------16-12------------|
B|-------10-------------10-------:-------12------0-------12------0--|
G|----------11-------------11----:----------13-9------------13-9----|
D|-------------12-------------12-:----------------------------------|
A|-------------12-------------12-:----------------------------------|
E|-------------------------------:----------------------------------|

Lava subindo:

      F5     F#5
E|------------------|
B|------------------|
G|------------------|   2x
D|------------------|
A|------------------|
E|-----1---1-2-2----|
00:00 / 00:00
Outros vídeos desta música
Repetir
Outros vídeos desta música
5.085 exibições
    • ½ Tom
    • A
    • Bb
    • B
    • C
    • Db
    • D
    • Eb
    • E
    • F
    • F#
    • G
    • Ab
  • Adicionar à lista

Afinação da cifra

Afinador online

    0 comentários

    Ver todos os comentários

    Entre para o Cifra Club PRO

    Tenha acesso a benefícios exclusivos no App e no Site

    • Chega de anúncios

    • Mais recursos no app do Afinador

    • Atendimento Prioritário

    • Aumente seu limite de lista

    • Ajude a produzir mais conteúdo

    00:00 / 00:00

    Cifra Club Pro

    Aproveite o Cifra Club com benefícios exclusivos e sem anúncios
    Cifra Club Pro
    Aproveite o Cifra Club com benefícios exclusivos e sem anúncios
    OK