Enviar cifraEntrar

A Lenda do Herói

Marcos Castro

Cifra: Principal
exibições 55.594
Tom: G
Violão 1:

E|------------9-10-9-----------------------------
B|-12-10-12----------12-10---12-10-12-10-12------
G|-------------------------------------------9---
D|-----------------------------------------------
A|-----------------------------------------------
E|-----------------------------------------------


E|------------9-10-9-----------------------------
B|-12-10-12----------12-10---12--12-10-8---------
G|---------------------------------------11-9----
D|-----------------------------------------------
A|-----------------------------------------------
E|-----------------------------------------------


Violão 2:

E|-----------------------------------------------
B|---------7-8-7---------------------------------
G|-9-7-9---------9-7---9-7-9-7-9-----------------
D|--------------------------------7--------------
A|-----------------------------------------------
E|-----------------------------------------------


E|-----------------------------------------------
B|---------7-8-7---------------------------------
G|-9-7-9---------9-7---9--9-7-5------------------
D|------------------------------9-7--------------
A|-----------------------------------------------
E|-----------------------------------------------



Em                D            C            B7
Eu vou me apresentar, sou o herói desta canção
  C               D          C            B7
E a princesa vou resgatar , do terrivel vilão.
Em            D      C              B7
Nada vai me parar , nada vai me impedir
 C              D                 C                 B7
Pois dou salto de cinco metros e não me machuco ao cair.

Am                           Bm
Sou um bravo guerreiro, mas por mais que eu tente
    C            D             Em
Eu sempre me machuco quando encosto em uma serpente.

  Em                      D              C           B7
Terei que usar minha espada, pois não vejo mais opções
   C                D             C                 B7
Queria fugir pelo fundo , mas só ando em duas dimensões.
Em              D        C                  B7
Morra, vil criatura, eu vou arrancar o seu couro
C             D                    C                  B7
Isso é para você aprender, o que é isso? Uma moeda de ouro?
     Em          D       C             B7
Mas algo mais adiante , rouba minha atenção
C              D         C            B7
Eis que vejo flutuando um pedaço de chão.

 Am              Bm
Será que estou perdendo a sanidade
    C       D       Em
Ou isto desafia as leis da gravidade

Em             D            C              B7
Logo à minha frente, pelo abismo eu vou passar
C              D                    C                B7
Algo muito estranho, achei que estivesse no nível do mar.
Em              D     C               B7
Sigo minha aventura, contra o mal opressor
   C                 D                   C             B7
Enfrento serpentes muito mais fortes , pois mudaram de cor.
Em             D      C                     B7
Como se não bastasse, vejo o que está mais além
C           D                  C              B7
Outra plataforma que voa, mas esta se move também.

  Am                        Bm
A seta indica o caminho, mas eu ignorei
    C          D             Em
Passei pela parede , e uma passagem secreta encontrei

Em            D      C                  B7
Dentro da passagem, vejo um tesouro guardado
C              D              C           B7
Mas alguem se esqueceu de deixar o baú trancado.

Em            A
Uma bola de fogo encontrei
Em                A
Como não incinerou o baú, eu não sei.
Em                A
E já que não me queimou também
Em      D         Em
Vou guardá-la para atacar alguém.

    Em            D        C                 B7
A parede é muito alta, preciso de mais propulsão
     C               D           C                   B7
Meu salto não é tão alto, só consigo com a mola no chão.
Em        D           C           B7
Vejo uma ponte , o cenário está mudando
C              D             C               B7
Eu pressinto agora que o inimigo estou alcançando.

E|-0-0-0-0-0-0-0-0-0-0-0-0-0-0-0-0-0-0----------------------------------
B|-------------------------------------1-1-1-1-1-1-1-1-1-1-1-1-1-1-1----
G|----------------------------------------------------------------------
D|----------------------------------------------------------------------
A|----------------------------------------------------------------------
E|----------------------------------------------------------------------


E|----------------------------------------------------------------------
B|-2-2-2-2-2-2-2-2-2-2-2-2-2-2-2-2--1-1-1-1-1-1-1-1-1-1-1-1-1-1-1-1-1---
G|----------------------------------------------------------------------
D|----------------------------------------------------------------------
A|----------------------------------------------------------------------
E|----------------------------------------------------------------------


E|----------------------------------------------------------------------
B|-2-2-2-2-2-2-2-2-2-2-2-2-2-2-2-2--1-1-1-1-1-1-1-1-1-1-1-1-1-----------
G|----------------------------------------------------------------------
D|----------------------------------------------------------------------
A|----------------------------------------------------------------------
E|----------------------------------------------------------------------


E|----------------------------------------------------------------------
B|-3-3-3-3-3-3-3-3-3-3-3-3-3-3-3--5/1-----------------------------------
G|----------------------------------------------------------------------
D|----------------------------------------------------------------------
A|----------------------------------------------------------------------
E|----------------------------------------------------------------------



Em           D      C            B7
Rufem os tambores , eu venci o duelo
C            D             C           D        Em
Só que descobri que a princesa está em outro castelo
  • 1
  • 2
  • 3
  • 4
  • 5
  • 6
  • 7
  • 8
  • 9
  • 10
  • 11
  • 12
    Acordes para:
      Composição: Marcos CastroColaboração e revisão:

      0 comentários

        mostrar mais comentários

        Conseguiu tocar?

        57tocaram0ainda não

        Grave um vídeo tocando A Lenda do Herói e mande pra gente!

        00:00 / 00:00
        outros vídeos desta música
        repetirqualidadeautomática
        • automática
        Outro vídeos desta música
          00:00 / 00:00
          automática
          • automática
          Acordes para:violão e guitarra
          dificuldadeexibiçõescontribuições
          fecharplay/pause subir/descer velocidade
            acordes
            fechar
            OK
            Feedback