Cifra Club

Marea

Marea

Cifra: Principal (violão e guitarra)
Selo Cifra Club: esta cifra foi revisada para atender aos critérios oficiais da nossa Equipe de Qualidade.
tom: D
INTRO: (todo distorsion), sin tonterias XD!!
E|----------------------------------|
B|----------------------------------|
G|----------------------------------|
D|----------------------------------|
A|-----------------4---5---4------|
E|--------5---7-----------------5-|

E|----------------------------------------------------3-----3------------|
B|----------------------------------------------------3-----3------------|
G|--4---4-----------------4--4------------------------4-----4------------|
D|--4---4-----------------4--4---------------------5-----5---------------|
A|--2---2---0-h-2---------2--2---0-h-2-p-0---------5-----5---------------|
E|-------------------------------------------------3-----3---------------|

E|-----------------------------------------------------------------------|
B|-----------------------------------------------------------------------|
G|--4--4----------------4--4-----------------7--7----7--9----------------|
D|--4--4----------------4--4-----------------5--5----5--7----------------|
A|--2--2---0-h-2-p-0----2--2---0-h-2-p-0-----5--5----5--7------4-5-4-----|
E|---------------------------------------------------------5| —7--------5--

VERSO 1:
E|----------------------------------------------------3-----3----------|
B|----------------------------------------------------3-----3----------|
G|--4---4-----------------4--4------------------------4-----4----------|
D|--4---4-----------------4--4---------------------5-----5-------------|
A|--2---2---0-h-2---------2--2---0-h-2-------------5-----5-------------|
E|-------------------------------------------------3-----3-------------|
Cuantas veces me habré preguntao,        ¿qué es lo que se desata
                                           detrás de su cara?,

E|---------------------------------------------------------------------|
B|---------------------------------------------------------------------|
G|--4---4-----------------4--4--------------------7--7----7--9--9------|
D|--4---4-----------------4--4--------------------5--5----5--7--7------|
A|--2---2---0-h-2---------2--2---0-h-2------------5--5----5--7--7------|
E|---------------------------------------------------------------------|
si tu supieras, si yo te dijera,                 si yo te contara...

E|----------------------------------------------------3-----3----------|
B|----------------------------------------------------3-----3----------|
G|--4---4-----------------4--4------------------------4-----4----------|
D|--4---4-----------------4--4---------------------5-----5-------------|
A|--2---2---0-h-2-p-0-----2--2---0-h-2-p-0---------5-----5-------------|
E|-------------------------------------------------3-----3-------------|
la enlazaron y se ha desatao y                  ondea por la acera
                                               el vuelo de su falda,

E|---------------------------------------------------------------------|
B|---------------------------------------------------------------------|
G|--4---4-----------------4--4--------------------7--7----7--9--9------|
D|--4---4-----------------4--4--------------------5--5----5--7--7------|
A|--2---2---0-h-2---------2--2---0-h-2------------5--5----5--7--7------|
E|---------------------------------------------------------------------|
es su bandera, es donde guarda,               su nombre se llama marea,

          P.M…………………………………………………………..
E|-----------------------------------------------------------------------|
B|-----------------------------------------------------------------------|
G|------------------------------------------4---4---------4---4----------|
D|------5---5-5-5-5-5-5-5-5-5-5-5-5-5-5-----4---4---------4---4----------|
A|-2-0--5---5-5-5-5-5-5-5-5-5-5-5-5-5-5-----2---2--0-h-2--2---2---0-h-2--|
E|------3---3-3-3-3-3-5-3-3-3-3-3-3-3-3----------------------------------|
               y estaba tan solita que me fui pallí,

      P.M…………………………………………………………...
E|-----------------------------------------------------------------------|
B|-----------------------------------------------------------------------|
G|--------------------------------------4---4-------------4---4----------|
D|--5---5-5-5-5-5-5-5-5-5-5-5-5-5-5-----4---4-------------4---4----------|
A|--5---5-5-5-5-5-5-5-5-5-5-5-5-5-5-----2---2---0-h-2-----2---2---0-h-2--|
E|--3---3-3-3-3-3-5-3-3-3-3-3-3-3-3--------------------------------------|
            ¿quieres hablar conmigo?,   ¡pues claro que sí!,


                 P.M………………………………………………………………
E|----------------------------------------------------|
B|----------------------------------------------------|
G|----------------------------------------------------|
D|----------5------5-5-5-5-5-5-5-5-5-5-5-5-5-5--------|
A|----------5------5-5-5-5-5-5-5-5-5-5-5-5-5-5--------|
E|----------3------3-3-3-3-3-5-3-3-3-3-3-3-3-3--------|
                 su soledad es una vieja enjuta

        PM…………………           PM…………………
E|----------------------------------------------------|
B|----------------------------------------------------|
G|--4-----4-4-4-4-4-----4-----4-4-4-4-4---------------|
D|--4-----4-4-4-4-4-----4-----4-4-4-4-4---------------|
A|--2-----2-2-2-2-2-----2-----2-2-2-2-2---------------|
E|----------------------------------------------------|
 rodeá de hijos de puta

                 P.M………………       PM ……………………
E|---------------------------------------------------------------------|
B|---------------------------------------------------------------------|
G|--------------------------------------------------7---7-----7--9--9--|
D|----------5------5-5-5-5-5---5---5-5-5-5-5-5------7---7-----7--9--9--|
A|----------5------5-5-5-5-5---5---5-5-5-5-5-5------5---5-----5--7--7--|
E|----------3------3-3-3-3-3---3---3-3-3-3-3-3-------------------------|
              que se ríen de ella pues todos   quisieran ser como marea,

PRIMER PUNTEO:
Guitarra ritmika
E|-----------------------------------------]|
B|-----------------------------------------]|
G|---4| —4-----------------------------------]
D|---4| —4----------5—5-------7—7-------7—7--]     x2
A|---2| —2----------5—5-------7—7-------7—7--]
E|----------------3| —3-------5—5-------5—5--]

guitarra solista
E|---------------------------------------------------------------------|
B|---------------------------------------------------------------------|
G|-9-s-11--11-11--9------------9----9-----9-s-11---11-11--9--------9v--|
D|--------------------12--12-----12---12-----------------------12------| x2
A|---------------------------------------------------------------------|
E|---------------------------------------------------------------------|

Guitarra ritmika
 P.M………            P.M………]             P.M………]              P.M………]
E|---------------------------------------------------------------------|
B|---------------------------------------------------------------------|
-4—4-4-4-4-4-4-------------------------------------------------------
-4—4-4-4-4-4-4---5—5-5-5-5-5-5-----7—7-7-7-7-7-7------7—7-7-7-7-7-7-- x2
-2—2-2-2-2-2-2---5—5-5-5-5-5-5-----7—7-7-7-7-7-7------7—7-7-7-7-7-7--
E|-----------------3| —3-3-3-3-3-3-----5—5-5-5-5-5-5------5—5-5-5-5-5-5--

la solista del kolibri repite el mismo punteo

VERSO 2:
E|----------------------------------------------------3-----3----------|
B|----------------------------------------------------3-----3----------|
G|--4---4-----------------4--4------------------------4-----4----------|
D|--4---4-----------------4--4---------------------5-----5-------------|
A|--2---2---0-h-2---------2--2---0-h-2-------------5-----5-------------|
E|-------------------------------------------------3-----3-------------|
y cuentan que un verano voló                  y se dejó el corazón
                                               debajo de la cama,

E|---------------------------------------------------------------------|
B|---------------------------------------------------------------------|
G|--4---4-----------------4--4--------------------7--7----7--9--9------|
D|--4---4-----------------4--4--------------------5--5----5--7--7------|
A|--2---2---0-h-2---------2--2---0-h-2------------5--5----5--7--7------|
E|---------------------------------------------------------------------|
que le dijo que no volvería,                    que no la esperara,

E|----------------------------------------------------3-----3----------|
B|----------------------------------------------------3-----3----------|
G|--4---4-----------------4--4------------------------4-----4----------|
D|--4---4-----------------4--4---------------------5-----5-------------|
A|--2---2---0-h-2---------2--2---0-h-2-------------5-----5-------------|
E|-------------------------------------------------3-----3-------------|
quién le iba a decir                        que al final iba a unir
                                             su tripa con la mía,

E|---------------------------------------------------------------------|
B|---------------------------------------------------------------------|
G|--4---4-----------------4--4--------------------7--7----7--9--9------|
D|--4---4-----------------4--4--------------------5--5----5--7--7------|
A|--2---2---0-h-2---------2--2---0-h-2------------5--5----5--7--7------|
E|---------------------------------------------------------------------|
con un poeta de cañerías,            poeta de mierda, de manos vacías,

          P.M………………………………………………………………
E|---------------------------------------------------------------------|
B|---------------------------------------------------------------------|
----------------------------------------4--4----------4--4-----------
------5---5-5-5-5-5-5-5-5-5-5-5-5-5-5---4--4----------4--4-----------
-2-0--5---5-5-5-5-5-5-5-5-5-5-5-5-5-5---2--2--0-h-2---2--2--0-h-2----
------3---3-3-3-3-3-5-3-3-3-3-3-3-3-3--------------------------------
        que necesita a alguien cuando va a caer,


          P.M………………………………………………………………
E|---------------------------------------------------------------------|
B|---------------------------------------------------------------------|
----------------------------------------4--4----------4--4-----------
------5---5-5-5-5-5-5-5-5-5-5-5-5-5-5---4--4----------4--4-----------
------5---5-5-5-5-5-5-5-5-5-5-5-5-5-5---2--2--0-h-2---2--2--0-h-2----
------3---3-3-3-3-3-5-3-3-3-3-3-3-3-3--------------------------------
          que borra las fronteras con solo sus piés,

                 P.M………………………………………………………………
E|-------------------------------------------------|
B|-------------------------------------------------|
G|-------------------------------------------------|
D|----------5------5-5-5-5-5-5-5-5-5-5-5-5-5-5-----|
A|----------5------5-5-5-5-5-5-5-5-5-5-5-5-5-5-----|
E|----------3------3-3-3-3-3-5-3-3-3-3-3-3-3-3-----|
         dame fuerte en la entrepierna,

       PM…………………           PM…………………
E|------------------------------------------|
B|------------------------------------------|
G|--4-----4-4-4-4-4-----4-----4-4-4-4-4-----|
D|--4-----4-4-4-4-4-----4-----4-4-4-4-4-----|
A|--2-----2-2-2-2-2-----2-----2-2-2-2-2-----|
E|------------------------------------------|
  no me dejes que me duerma,

          P.M…………………      PM ……………………
E|-------------------------------------------------------------------|
B|-------------------------------------------------------------------|
G|---------------------------------------------7---7--------7--9--9--|
D|---5------5-5-5-5-5---5---5-5-5-5-5-5--------7---7--------7--9--9--|
A|---5------5-5-5-5-5---5---5-5-5-5-5-5--------5---5--------5--7--7--|
E|---3------3-3-3-3-3---3---3-3-3-3-3-3------------------------------|
 que esta noche me las piro a enseñarle los dientes al mundo contigo.

Guitarra ritmika
E|-----------------------------------------]|
B|-----------------------------------------]|
G|---4| —4-----------------------------------]
D|---4| —4----------5—5-------7—7-------7—7--]     x2
A|---2| —2----------5—5-------7—7-------7—7--]
E|----------------3| —3-------5—5-------5—5--]

guitarra solista
E|---------------------------------------------------------------------|
B|---------------------------------------------------------------------|
G|-9-s-11--11-11--9------------9----9-----9-s-11---11-11--9--------9v--|
D|--------------------12--12-----12---12-----------------------12------| x2
A|---------------------------------------------------------------------|
E|---------------------------------------------------------------------|

Guitarra ritmika
 P.M………            P.M………]             P.M………]              P.M………]
E|---------------------------------------------------------------------|
B|---------------------------------------------------------------------|
-4—4-4-4-4-4-4-------------------------------------------------------
-4—4-4-4-4-4-4---5—5-5-5-5-5-5-----7—7-7-7-7-7-7------7—7-7-7-7-7-7-- x2
-2—2-2-2-2-2-2---5—5-5-5-5-5-5-----7—7-7-7-7-7-7------7—7-7-7-7-7-7--
E|-----------------3| —3-3-3-3-3-3-----5—5-5-5-5-5-5------5—5-5-5-5-5-5--

la solista del kolibri repite el mismo punteo

ESTRIBILLO:
Guitarra 1
 P.M…………………………    P.M……….......    P.M……….......     P.M………........
E|--------------------------------------------------------------------|
B|--------------------------------------------------------------------|
-4—4-4-4-4-4-4------------------------------------------------------
-4—4-4-4-4-4-4----5—5-5-5-5-5-5----7—7-7-7-7-7-7-----7—7-7-7-7-7-7-- x4
-2—2-2-2-2-2-2----5—5-5-5-5-5-5----7—7-7-7-7-7-7-----7—7-7-7-7-7-7--
E|------------------3| —3-3-3-3-3-3----5—5-5-5-5-5-5-----5—5-5-5-5-5-5--
Mareeeeeeeaaaaaaaauuaaa

Guitarra 2
   P.M………]              P.M………]
E|------------------------------------------------------------------|
B|------------------------------------------------------------------|
-4—4-4-4-4-4-4---------------------4---4-----------4--4-----------
-4—4-4-4-4-4-4----5—5-5-5-5-5-5----4---4-----------4--4-----------  x4
-2—2-2-2-2-2-2----5—5-5-5-5-5-5----2---2---0-h-2---2--2---0-h-2---
E|------------------3| —3-3-3-3-3-3-----------------------------------

Y bueno luego viene un peazo solo
q no me sabria sakar ni en un millon de años,
 si alguien puede!! Por lo menos sabeis como se acompaña!! XD
Q me lo pase!! luibpla@hotmail, ah!! Tb se admiten correcciones/dudas!!
 Ala a disfrutar guitarreros!!
Outros vídeos desta música
    61 exibições
      • ½ Tom
      • A
      • Bb
      • B
      • C
      • Db
      • D
      • Eb
      • E
      • F
      • F#
      • G
      • Ab
    • Adicionar à lista

    Afinação da cifra

    Afinador online

      0 comentários

      Ver todos os comentários

      Entre para o Cifra Club PRO

      Tenha acesso a benefícios exclusivos no App e no Site

      • Chega de anúncios

      • Badges exclusivas

      • Mais recursos no app do Afinador

      • Atendimento Prioritário

      • Aumente seu limite de lista

      • Ajude a produzir mais conteúdo

      Cifra Club Pro

      Aproveite o Cifra Club com benefícios exclusivos e sem anúncios
      Cifra Club Pro
      Aproveite o Cifra Club com benefícios exclusivos e sem anúncios
      OK