Cifra Club

Aprenda

El Tiempo

Marlon Henry

Cifra: Principal (violão e guitarra)
tom: F
Intro: Gm7  C9  F  Bb9

 Gm7                 C9
El viento toca mi cara
      F                         Bb9
recordándome que el tiempo pasa con ella
  Gm7                         C9
tomar las alas de mi día,
    F          Bb9
esta vida pasajera
Gm7
mis certezas, mis conceptos,
          C9
mis fortalezas, mis faltas
F          Bb9
nada puede detenerlo ...
   Gm7      Am
... El tiempo pasa
Bb9
pero siempre hay algo que sigo ...
  Gm7    Am         Bb9           C9
.. Tu amor, que un día me encontré

F        Gm7       Am         Bb9
mis sueños, el viento no puede tomar
Dm     C9      Am            Bb
esperanza, que se encuentra en los ojos
F       Gm7       Am            Bb9
mis sueños, la arena no se entierran
Dm       C9       Am             Bb9
porque la vida tiene que conocerlo ...

Gm7                       C9
... En tus brazos sin importar la hora
    F              Bb9
sólo hay tiempo para soñar
    Gm7            C9
y el miedo que siempre está a la puerta
 F
cuando estoy contigo
        Bb9
Él no puede conseguir ...

  Gm7      Am
... El tiempo pasa
Bb9
pero siempre hay algo que celebrar ...
 Gm7    Am         Bb9           C9
.. Tu amor, que un día me encontré

F        Gm7       Am         Bb9
mis sueños, el viento no puede tomar
Dm     C9      Am            Bb
esperanza, que se encuentra en los ojos
F       Gm7       Am            Bb9
mis sueños, la arena no se entierran
Dm       C9       Am             Bb9   C
porque la vida tiene que conocerlo ...

Solo: Gm7  C  F  Bb9
E|------------------5-6-6/8------6/8---6--5------------|
B|---------5--6--8---------------------------6/8-------|
G|---5--7---------------------5------------------------|
D|-----------------------------------------------------|
A|-----------------------------------------------------|
E|-----------------------------------------------------|

E|------------------5-5-----------5--------------------|
B|---------5-6-6/8-------8--6--8-----6-----------------|
G|---5--7----------------------------------------------|
D|-----------------------------------------------------|
A|-----------------------------------------------------|
E|-----------------------------------------------------|

E|-------6/8---5-6-8-6-5-------------------------------|
B|-----------------------8-6-5-6-8-6-5-----------------|
G|----5---------------------------------7--5-----------|
D|-----------------------------------------------------|
A|-----------------------------------------------------|
E|-----------------------------------------------------|

E|--6--8--8/10---8--5----------------------------------|
B|---------------------6--3----------------------------|
G|-----------------------------------------------------|
D|-----------------------------------------------------|
A|-----------------------------------------------------|
E|-----------------------------------------------------|

Coral 2x: Dm  C9  F  Bb9  F  C9

F        Gm7       Am         Bb9
mis sueños, el viento no puede tomar
Dm     C9      Am            Bb
esperanza, que se encuentra en los ojos
F       Gm7       Am            Bb9
mis sueños, la arena no se entierran
Dm       C9       Am             Bb9
porque la vida tiene que conocerlo ...

( Gm7  C9  F  Bb9  Gm7  C9  F )
Composição de Juninho Afram
Colaboração e revisão:
  • Marlon Schweigert
49 exibições
    • ½ Tom
    • A
    • Bb
    • B
    • C
    • Db
    • D
    • Eb
    • E
    • F
    • F#
    • G
    • Ab
  • Adicionar à lista

    0 comentários

    Ver todos os comentários

    Conseguiu tocar?

    1 Tocaram 0 Ainda não

    Grave um vídeo tocando El Tiempo e nos envie!

    00:00 / 00:00
    outros vídeos desta música
    repetir qualidade Automático
    Outros vídeos desta música
    00:00 / 00:00
    Automático

    Cifra Club Pro

    Aproveite o Cifra Club com benefícios exclusivos e sem anúncios
    Cifra Club Pro
    Aproveite o Cifra Club com benefícios exclusivos e sem anúncios
    OK