Cifra Club

Aprenda

Brilho Oculto

Mato Seco

Cifra: Principal (violão e guitarra)
Tom: C
Intro : Em  F

Riff : 

E|--------------------|
B|--------------------|
G|----------10-7-10-9-| 2X
D|-9-5-9--------------|
A|--------------------|
E|--------------------|

E|-8-7--------------------10-8----10-8-7----|
B|-----8---------8---10--------10-----------|
G|-------9---7-9---9------------------------|
D|------------------------------------------|
A|------------------------------------------|
E|------------------------------------------|

E|-8-7-------8-7----------------------------|
B|-----8---------8---8---10-----------------|
G|-------9---------9---9--------------------|
D|------------------------------------------|
A|------------------------------------------|
E|------------------------------------------|

E|------------------------------------------|
B|----------------------8-------------------|
G|-9---7-9-10-9-10---10---10-9-7-9---7-9-10-|
D|------------------------------------------|
A|------------------------------------------|
E|------------------------------------------|

"Yeeeeee
Aos bravos guerreiros que buscam, espalham a luz ao mundo
Filhos, guerreiros de JAH, buscando levando trazendo a salvação
É JAH irmão, essa é a salvação, que vem de lá, do alto do Monte Sião
Pra avisar ao Rei Leão o conquistador da Tribo de Judah.
E ai Mato Seco vai chegar?
Ahhh vai chegar Mato Seco, vai chegar!!!
Pra nos livrar, nos ensinar, em ser fortes e resistentes,
E saber reinar, e saber reinar, pois Deus nos fez para reinar,
Pois nós somos reis, Nós somos Deuses, nós somos filhos de Deus
Então não devemos nos matar!
Pois o que não quero pra mim, eu naum quero pra vc, pra vc, pra vc, pra vc...
Pra nenhum de vocês, e assim eu sei que é de vocês pra mim!
Pois nós temos o bem e a positividade de JAH!"

Em
Brilhos Ocultos no céu
     F           Em       F
O Deus do trovão anuncia sua chegada

E|--------------------------------------|
B|------------------8---------8---------|
G|--10-9-7-9-10-9-----10-9-10---10------|
D|--------------------------------------|

Em
Rostos alegres, o luxo, o féu,
F            Em     F
Tudo tem, sua hora marcada

E|----------------------------------------|
B|------------------8---------8-----------|
G|--10-9-7-9-10-9-----10-9-10---10--------|
D|----------------------------------------|

  Em             F
Tudo tem seu momento de acontecer
  Em             F
E apressar-se não vale de nada
Em
E Viva sua vida assim,
      F
Como um passarinho livre pra voar
   Em
Pense só concentre-se em seu caminho,
     F
Pois se perder
             Em
O difícil será voltar
  F                   Em      F
Voltar, o difícil sempre é voltar, voltar
     Em
E em uma vida onde se perde quase sempre
         F
E se ganha quase nunca
     Em
Melhor um passaro na mão,
         F
Do que dois a voar

E|----------------------------------------|
B|----------------------------------------|
G|-9-9-9-7---9h10-9-7---------7-----------|
D|--------------------9---7h9-------------|
A|----------------------------------------|
E|----------------------------------------|

E|----------------------------------------|
B|----------------------------------------|
G|-9-9-9-7---9h10-9-7---------9-----------|
D|--------------------9---7h9-------------|
A|----------------------------------------|
E|----------------------------------------|

Em
Voe, voe, voe pensamento e vá longe ó pensamento
     F
Vá longe buscar
     Em
O que eu estou a procurar,
   F
O que estou a procurar,
 Em
Um lugar,
                  F
Onde as pessoas escutem o que a paz tem pra nos falar
   Em                          F
Pois aqui não houvem, até parecem que estão todas surdas, as pessoas,
       Em            F
Mas são todas normais, e se dizem normais,
          Em
Mas são todas tão normais
          F
Que até se julgam normais

    Em
Mas e matar um irmão,

Isso é normal, fale pra mim,
F                        Em           F
Não é normal nem natural a gente ter que viver assim, que viver assim
          Em
Com medo de se aventurar
    F
Ou um ladrão te rouba, ou a policia,
     Em
Sua lei sua justiça,
         F
Pode até te matar
      Em
Por isso não, não é normal pra mim, não
F                       Em              F
Jah nos deu a vida mas não pra viver assim, não pra viver assim,
     Em
Ele quis amor, paz, sim
        F                           Em
E que eu não queira pra você o que eu também não quero pra mim,
      F
Amor, paz, sim
       Em                             F
E que eu não queira pra você o que eu também não quero pra mim,
 Em               F
É assim, tem que ser assim
      Em                             F
Que eu não queira pra você o que eu também não quero pra mim,
      Em                          F
E até para os pobres hipócritas que não gostam de mim
    Em                         F
Eu não quero pra vocês o que vocês querem pra mim
Em       F
Amor, paz, sim
          Em                  F
E que eu nunca queira pra você o que eu também não quero pra mim

"Vivemos hoje, vivemos fortes e resistentes,
Como aquela árvore no outono, aonde está seca, sem frutos sem folhas,
Mas ela permanece ali, firme forte e resistente.
AH a resistência!
Pois temos fé! Somos fiéis a JAH Rastafari
E sabemos que ele nunca nos abandonará
Nunca nos abandonará!
Pois vemos e sentimos que ele vai chegar
Ah ele vai chegar! Vai chegar, ah vai chegar ha!ha!"
Composição de Edgar Gonçalves
Colaboração e revisão:
158.135 exibições
    • ½ Tom
    • A
    • Bb
    • B
    • C
    • Db
    • D
    • Eb
    • E
    • F
    • F#
    • G
    • Ab
  • Adicionar à lista

    0 comentários

    Mostrar mais comentários

    Conseguiu tocar?

    11 Tocaram 3 Ainda não

    Grave um vídeo tocando Brilho Oculto e mande pra gente!

    00:00 / 00:00
    outros vídeos desta música
    repetir qualidade Automático
    Outros vídeos desta música
    00:00 / 00:00
    Automático

    Cifra Club Pro

    Aproveite o Cifra Club com benefícios exclusivos e sem anúncios
    7 dias grátis
    Cifra Club Pro
    Aproveite o Cifra Club com benefícios exclusivos e sem anúncios
    7 dias grátis
    OK