Cifra Club

Brilho Oculto

Mato Seco

Cifra: Versão 2 (violão e guitarra)
tom: C
Parte 1:
E|---7-7-7-----8--8--8-------------------------------------------|
B|---8-8-8-----10-10-10------------------------------------------|
G|---9-9-9-----10-10-10------------------------------------------|
D|---------------------------------------------------------------|
A|---------------------------------------------------------------|
E|---------------------------------------------------------------|

Apartir dessa parte você tem que fazer um ritmo de *Reggae
com as mesmas notas a cima e no final uma variação

Parte 2:

E|---7-7-7-7----8--8--8--8-----7-7-7-7--8---11-------------------|
B|---8-8-8-8----10-10-10-10----8-8-8-8--10-----------------------|
G|---9-9-9-9----10-10-10-10----9-9-9-9--10-----------------------|
D|---------------------------------------------------------------|
A|---------------------------------------------------------------|
E|---------------------------------------------------------------|

( Em  F )

( Em  F )
Ó  bravos guerreiros q buscam e espalham a luz ao mundo
Filhos guerreiros de jah
Buscando levando trazendo a salvação
A salvação
Jah meu irmão
Essa é a salvação
Que vem dos céus
Do monte sião
Ao rei leão conquistador da tribo de judah
Iae mato seco vai chega
Ah vai chega mato seco ah vai chega
Pra nos salvar pra nos livrar
Pra nos manter fortes e resistentes
E esperar

Brilhos ocultos no céu
Deus do trovão anuncia sua chegada
Rostos alegres o luxo o fel
Tudo tem sua hora marcada

Tudo tem seu momento de acontecer
A apressar-se não vale de nada

E viva sua vida assim
Como um passarinho livre pra voar
Pense só concentre isso em seu caminho
Pois se se perder o difícil será voltar  voltar
O difícil sempre  voltar voltar

Em uma vida q se perde
Quase sempre se ganha quase nunca
Melhor um passarinho na mão
do q dois a voar

voe voe voe va longe pensamento
Vá longe buscar
O q eu estou a procurar o q eu estou a procurar

Um lugar onde as pessoas
Escutam o q a paz vem pra nos falar
pois aqui nao ouvem parece ate q são todas surdas
as pessoas

mas são todas normais
q se dizem normais
mas são todas tão normais
q ate se julgam normais

mas e matar um irmão
isso e normal fale pra mim
não e normal nem natural
a gente ter q viver assim ah q viver assim
com medo de se aventurar

ou um ladrão te rouba ou a policia
sua lei sua justiça pode ate te matar

oh isso não não e normal pra mim não
pois jah nos deu a vida mas não pra viver assim
não pra viver assim

Ele quis amor paz sim
E que não queira pra você
o que eu também não quero pra mim
E assim tem q ser assim

Amor e paz sim
E que eu não queira pra você
O q eu também não quero pra mim

E assim tem q ser assim
E que eu não queira pra você
O que eu também não quero pra mim

E ate para os pobres
Ah que não gostam de mim
Pois eu não quero pra vocês
O que vocês querem pra mim

Amor e paz ...

Brilhos ocultos no céu
Anunciam a chegada
De um grande deus

Rastafari
00:00 / 00:00
Outros vídeos desta música
Repetir
Outros vídeos desta música
Composição de Rodrigo Piccolo
Colaboração e revisão:
  • Nicolas Geovan
17.366 exibições
    • ½ Tom
    • A
    • Bb
    • B
    • C
    • Db
    • D
    • Eb
    • E
    • F
    • F#
    • G
    • Ab
  • Adicionar à lista

    0 comentários

    Ver todos os comentários

    Conseguiu tocar?

    0 Tocaram 0 Ainda não

    Grave um vídeo tocando Brilho Oculto e nos envie!

    00:00 / 00:00

    Cifra Club Pro

    Aproveite o Cifra Club com benefícios exclusivos e sem anúncios
    Cifra Club Pro
    Aproveite o Cifra Club com benefícios exclusivos e sem anúncios
    OK