Cifra Club

Pedras Pesadas

Mato Seco

Tab de baixo: Principal
Selo Cifra Club: esta cifra foi revisada para atender aos critérios oficiais da nossa Equipe de Qualidade.
[Primeira Parte]

G|-----------------------------------------------------|
D|-----------------------------------------------------| (8x)
A|-----------------------------------------------------|
E|-0--0--0--0------------------------------------------| 

[Segunda Parte]

[Parte 1 De 2]

G|-----------------------------------------------------|
D|-----------------------------------------------------|
A|------------------7-------------------5--7-6-5-------| 
E|-00-33-00-------0-----00-33-00------7----------------|

[Parte 2 De 2]

G|-----------------------------------------------------|
D|-----------------------------------------------------|
A|---------------5--7-5-6------------------------------| 
E|-00-33-00-----7-7------------------------------------|

[Refrão] 

G|-----------------------------------------------------|
D|-----------------------------------------------------|
A|--------------3-2—---------------3-5-3-2-------------| (2x)
E|-00-33-00—3-5-------00-33-00—3-5---------------------|



[Primeira Parte]

G|-----------------------------------------------------|
D|-----------------------------------------------------| (8x)
A|-----------------------------------------------------|
E|-0--0--0--0------------------------------------------| 

[Segunda Parte]

[Parte 1 De 2]

G|-----------------------------------------------------|
D|-----------------------------------------------------|
A|------------------7-------------------5--7-6-5-------| 
E|-00-33-00-------0-----00-33-00------7----------------|

[Parte 2 De 2]

G|-----------------------------------------------------|
D|-----------------------------------------------------|
A|---------------5--7-5-6------------------------------| 
E|-00-33-00-----7-7------------------------------------|

[Terceira Parte]

G|-----------------------------------------------------|
D|-----------------------------------------------------|
A|------------------7-------------------5--7-6-5-------| (2x)
E|-00-33-00-------0-----00-33-00------7----------------|

G|-----------------------------------------------------|
D|-----------------------------------------------------|
A|------------------7----------------------------------| 
E|-00-33-00-------0-----00-33-00-----------------------|

G|-----------------------------------------------------|
D|-----------------------------------------------------|
A|------------------7------------------5--7-6-5--------| 
E|-00-33-00-------0-----00-33-00------7-7--------------|

[Refrão] 

[Parte 1 De 5]

G|-----------------------------------------------------|
D|-----------------------------------------------------|
A|--------------3-2—---------------3-5-3-2-------------| 
E|-00-33-00—3-5-------00-33-00—3-5---------------------|

[Parte 2 De 5]

G|-----------------------------------------------------|
D|--------------------------------------5--------------|
A|--------------3-2—---------------3—-3---3-2----------| 
E|-00-33-00—3-5-------00-33-00—3-5---------------------|

[Parte 3 De 5]

G|-----------------------------------------------------|
D|-----------------------------------------------------|
A|--------------3-2—---------------3-5-3-2-------------| 
E|-00-33-00—3-5-------00-33-00—3-5---------------------|

[Parte 4 De 5]

G|-----------------------------------------------------|
D|-----------------------------------------------------| (2x)
A|--------------3-2—---------------3-5-3-2-------------| 
E|-00-33-00—3-5-------00-33-00—3-5---------5-3---------|

[Parte 5 De 5]

G|-----------------------------------------------------|
D|-----------------------------------------------------|
A|--------------3-2—-----------------------------------| 
E|-00-33-00—3-5---------—------------------------------|

[Final]

G|---------------------—-------------------------------|
D|---------------------—-------------------------------| (8x)
A|---------------------—-------------------------------|
E|-0--0--0--0-----------—------------------------------|
Outros vídeos desta música
    178 exibições

    Afinação da cifra

    Afinador online

    0 comentários

    Ver todos os comentários

    Entre para o Cifra Club PRO

    Tenha acesso a benefícios exclusivos no App e no Site

    • Chega de anúncios

    • Badges exclusivas

    • Mais recursos no app do Afinador

    • Atendimento Prioritário

    • Aumente seu limite de lista

    • Ajude a produzir mais conteúdo

    Cifra Club Pro

    Aproveite o Cifra Club com benefícios exclusivos e sem anúncios
    Cifra Club Pro
    Aproveite o Cifra Club com benefícios exclusivos e sem anúncios
    Ops (: Contenido disponible sólo en portugués.
    OK