Cifra Club

Aprenda

Black Helicopter

Matthew Good

Cifra: Versão 2 (violão e guitarra)
tom: Bb
Album: Hospital Music
Tabbed By: Wade Ouellet
Section: Tab/Chords
Tuning: Eb Ab Db Gb Bb Eb

Intro/Verse:
Guitar 1:

|----------------------------------|
|--------------3-------5/6666553---|
|------5---------------------------| x2
|-3h5p3---3h5p3---3h5p3------------|
|----------------------------------|
|----------------------------------|

|----------------------------------|
|--------------3-------5/8888665---|
|------5---------------------------|
|-3h5p3---3h5p3---3h5p3------------|
|----------------------------------|
|----------------------------------|

|----------------------------------|
|--------------3-------5/6666553---|
|------5---------------------------|
|-3h5p3---3h5p3---3h5p3------------|
|----------------------------------|
|----------------------------------|

Guitar 2: Am C G F

Chorus: No Guitar

Interlude: 
Guitar 1:
|-------------------------|
|------0-------3--5-3-0---|
|-------------------------|
|-3h5p3---3h5p3-----------|
|-------------------------|
|-------------------------|

|---------------------|
|--------------3-/5---|
|------5--------------|
|-3h5p3---3h5p3-------|
|---------------------|
|---------------------|

Guitar 2: F

Verse: same

Chorus: same

Outro: same as interlude
31 exibições
    • ½ Tom
    • A
    • Bb
    • B
    • C
    • Db
    • D
    • Eb
    • E
    • F
    • F#
    • G
    • Ab
  • Adicionar à lista

    0 comentários

    Ver todos os comentários

    Conseguiu tocar?

    0 Tocaram 0 Ainda não

    Grave um vídeo tocando Black Helicopter e nos envie!

    00:00 / 00:00
    outros vídeos desta música
    repetir qualidade Automático
    Outros vídeos desta música
    00:00 / 00:00
    Automático

    Cifra Club Pro

    Aproveite o Cifra Club com benefícios exclusivos e sem anúncios
    Cifra Club Pro
    Aproveite o Cifra Club com benefícios exclusivos e sem anúncios
    OK