Cifra Club

Aprenda

Salvou Meu Dia (part. Gusttavo Lima)

Kevinho

Cifra: Versão 2 (violão e guitarra)
Tom: Am
[Intro] F  G  Am

E|------------------------------------------|
B|-5-5-8-6-5-6-5----8-6-5-6-5---------------|
G|---------------5------------5-------------|
D|------------------------------------------|
A|------------------------------------------|
E|------------------------------------------|

E|------------------------------------------|
B|-8-6-5-6-5-----5--------------------------|
G|-----------5-7----------------------------|
D|------------------------------------------|
A|------------------------------------------|
E|------------------------------------------|

[Primeira Parte]

F                  G
  Eu tô com pressa,  vontade louca 
Em7                   Am
    To decidido a beijar sua boca
F               G
  Desejo desses,  tá pra nascer
Em7                      Am
    Eu só senti essas paradas por você 

 F                       G
Você tá ouvindo o grave do bailão 
Em7                    Am
É assim que tá batendo o meu coração
F              G
  Eu tô focado,  e não desisto 
Em7
O não eu já tenho, o sim eu conquisto 

[Refrão]

               F          
É que você salvou meu dia  
G                     Em7          Am
  Esse sorriso seu é muita covardia 
                F              
E se quiser salvar minha noite  
G                       Am  
  Diz que vai dormir comigo hoje

               F          
É que você salvou meu dia  
G                     Em7          Am
  Esse sorriso seu é muita covardia 
                F              
E se quiser salvar minha noite  
G                       Am  
  Diz que vai dormir comigo hoje

          F                 G
Deixa eu dar, um cheiro no cangote
    Em7             Am
Se não arrepiar cê me devolve
          F                 G
Deixa eu dar, um cheiro no cangote
    Em7             Am
Se não arrepiar cê me devolve

[Solo] G  A  Bm
       G  A  Bm

E|------------------------------------------|
B|-7-7-10-8-7-8-7----10-8-7-8-7-------------|
G|----------------7-------------7-----------|
D|------------------------------------------|
A|------------------------------------------|
E|------------------------------------------|

E|------------------------------------------|
B|-10-8-7-8-7-----7-------------------------|
G|------------7-9---------------------------|
D|------------------------------------------|
A|------------------------------------------|
E|------------------------------------------|

E|------------------------------------------|
B|--10-8-7-8-7----10-8-7-8-7----------------|
G|-------------7-------------7--------------|
D|------------------------------------------|
A|------------------------------------------|
E|------------------------------------------|

E|------------------------------------------|
B|-10-8-7-8-7-----7-------------------------|
G|------------7-9---------------------------|
D|------------------------------------------|
A|------------------------------------------|
E|------------------------------------------|

[Segunda Parte]

G                  A
  Eu tô com pressa,  vontade louca 
F#m7                   Bm
     To decidido a beijar sua boca
G               A
  Desejo desses,  tá pra nascer
F#m7                      Bm
     Eu só senti essas paradas por você 

 G                       A
Você tá ouvindo o grave do bailão 
F#m7                   Bm
É assim que tá batendo o meu coração
G              A
  Eu tô focado,  e não desisto 
F#m7                     Bm
O não eu já tenho, o sim eu conquisto 

[Refrão]

               G          
É que você salvou meu dia  
A                     F#m7         Bm
  Esse sorriso seu é muita covardia 
                G              
E se quiser salvar minha noite  
A                       Bm  
  Diz que vai dormir comigo hoje

               G          
É que você salvou meu dia  
A                     F#m7         Bm
  Esse sorriso seu é muita covardia 
                G              
E se quiser salvar minha noite  
A                       Bm  
  Diz que vai dormir comigo hoje

               G          
É que você salvou meu dia  
A                     F#m7         Bm
  Esse sorriso seu é muita covardia 
                G              
E se quiser salvar minha noite  
A                       Bm  
  Diz que vai dormir comigo hoje

          G                 A
Deixa eu dar, um cheiro no cangote
    F#m7            Bm
Se não arrepiar cê me devolve
          G                 A
Deixa eu dar, um cheiro no cangote
    F#m7            Bm
Se não arrepiar cê me devolve

[Final] G  A  Bm

E|------------------------------------------|
B|-7-7-10-8-7-8-7----10-8-7-8-7-------------|
G|----------------7-------------7-----------|
D|------------------------------------------|
A|------------------------------------------|
E|------------------------------------------|

E|------------------------------------------|
B|-10-8-7-8-7-----7-------------------------|
G|------------7-9---------------------------|
D|------------------------------------------|
A|------------------------------------------|
E|------------------------------------------|
Composição de Breno Casagrande / Filipe Escandurras / Gusttavo Lima / kevinho / Shylton Fernandes
Colaboração e revisão:
  • Thiago Almeida
350 exibições
    • ½ Tom
    • Am
    • Bbm
    • Bm
    • Cm
    • C#m
    • Dm
    • Ebm
    • Em
    • Fm
    • F#m
    • Gm
    • G#m
  • Adicionar à lista

    0 comentários

    Mostrar mais comentários

    Conseguiu tocar?

    1 Tocaram 0 Ainda não

    Grave um vídeo tocando Salvou Meu Dia (part. Gusttavo Lima) e mande pra gente!

    00:00 / 00:00
    outros vídeos desta música
    repetir qualidade Automático
    Outros vídeos desta música
    00:00 / 00:00
    Automático
    OK