Cifra Club

Ta Tum Tum (part. Simone & Simaria)

Kevinho

Cifra: Principal (violão e guitarra)
exibições 47.946
Tom: Db (forma dos acordes no tom de C) Capotraste na 1ª casa
[Intro]  Am  Em  Dm  Em

E|--4/6--6-6-4-4---------4--------------------------|
B|---------------6--4-6----6-4-6--------------------|
G|--------------------------------------------------|
D|--------------------------------------------------|
A|--------------------------------------------------|
E|--------------------------------------------------|

E|--4/6--6-6-4-4---------4--------------------------|
B|---------------6--4-6----6-4-6--------------------|
G|--------------------------------------------------|
D|--------------------------------------------------|
A|--------------------------------------------------|
E|--------------------------------------------------|

 Am              Em
Hoje ela saiu de casa
                Dm      Em
Só pensando em mexer, mexer
 Am
Sem segundas intenções
Em
  Sem tocar, sem beijar
Dm                    Em
  Ela não vai se envolver

                 Am
A gata é uma loucura
               Em               Dm
Faz cena proibida e mantém postura
                Em                    Am
Depois da meia-noite, é filme com censura
 Em           Dm  Em
Sensualidade pura
                 Am
A gata é uma loucura
               Em               Dm
Fazendo a proibida e mantém postura
                Em                    Am
Depois da meia-noite, é filme com censura
 Em           Dm
Sensualidade pura

                  Am     Em         Dm
Gosta de fazer o tá, tá, tá, tá tum tum
                Em                     Am
Quicando e mostrando o poder desse bumbum
     Em         Dm
Tá, tá, tá tum tum
                Em
Quicando e mostrando

            Am
Vai mexendo o bumbum
            Em
Vai mexendo o bumbum
 Dm                  Em
Faz o movimento no talento
            Am
Tá, tá tum tum
               Em
Tum, vai mexendo o bumbum
 Dm                  Em
Faz o movimento no talento
            Am  Em  Dm
Tá, tá tum tum

E|--4/6--6-6-4-4---------4--------------------------|
B|---------------6--4-6----6-4-6--------------------|
G|--------------------------------------------------|
D|--------------------------------------------------|
A|--------------------------------------------------|
E|--------------------------------------------------|

( C#m  G#m  F#m )

E|--8/10--10-10-8-8----------8----------------------|
B|------------------10--8-10---10-8-10--------------|
G|--------------------------------------------------|
D|--------------------------------------------------|
A|--------------------------------------------------|
E|--------------------------------------------------|

 C#m               G#m
Hoje ela saiu de casa
                F#m       G#m
Só pensando em mexer, mexer
 C#m
Sem segundas intenções
G#m
  Sem tocar, sem beijar
F#m                     G#m
  Ela não vai se envolver

                 C#m
A gata é uma loucura
               G#m               F#m
Fazendo a proibida e mantém postura
                G#m                    C#m
Depois da meia-noite, é filme com censura
 G#m           F#m   G#m
Sensualidade pura

                 C#m
A gata é uma loucura
               G#m               F#m
Faz cena proibida e mantém postura
                G#m                    C#m
Depois da meia-noite, é filme com censura
 G#m           F#m
Sensualidade pura

                    C#m      G#m         F#m
E gosta de fazer o tá, tá, tá, tá tum tum
                G#m                     C#m
Quicando e mostrando o poder desse bumbum
     G#m         F#m
Tá, tá, tá tum tum
                G#m
Quicando e mostrando
            C#m
Vai mexendo o bumbum
            G#m
Vai mexendo o bumbum
 F#m                   G#m
Faz o movimento no talento
            C#m
Vai mexendo o bumbum
            G#m
Vai mexendo o bumbum
 F#m                   G#m
Faz o movimento no talento

                    C#m      G#m         F#m
E gosta de fazer o tá, tá, tá, tá tum tum
                G#m                     C#m
Quicando e mostrando o poder desse bumbum
 G#m         F#m
Tá, tá, tá tum tum
                G#m
Quicando e mostrando

( C#m  G#m  F#m  G#m )

E|--8/10--10-10-8-8----------8----------------------|
B|------------------10--8-10---10-8-10--------------|
G|--------------------------------------------------|
D|--------------------------------------------------|
A|--------------------------------------------------|
E|--------------------------------------------------|

E|--8/10--10-10-8-8----------8----------------------|
B|------------------10--8-10---10-8-10--------------|
G|--------------------------------------------------|
D|--------------------------------------------------|
A|--------------------------------------------------|
E|--------------------------------------------------|
Acordes para:
    Composição: Kayky Ventura / Rafinha RSQ Colaboração e revisão:
    • Enfermagem 2015
    • Augusto Santana
    • Marcos Paulo

    0 comentários

    mostrar mais comentários

    Conseguiu tocar?

    3 tocaram 3 ainda não

    Grave um vídeo tocando Ta Tum Tum (part. Simone & Simaria) e mande pra gente!

    00:00 / 00:00
    outros vídeos desta música
    repetir qualidade Automático
    Outros vídeos desta música
    00:00 / 00:00
    Automático
    OK