Cifra Club

Aprenda

All About You

McFly

Cifra: Versão 9 (violão e guitarra)
tom: G#
e|----------------------------------------------------------------------------|
B|----------------------------------------------------------------------------|
G|-------6--8---10--10--10--10------------------------------------------------|
D|---/8---------------------------11h10---8--10-------------------------------|
A|-------------------------------------------------11--13--11--4--6-4-6-4-1---|
E|----------------------------------------------------------------------------|

e|-------------------------11/13--13--13---13--11--9-8--9---11---9------------|
B|-6---9---6---9/11----14-----------------------------------------------------|
G|----------------------------------------------------------------------------|
D|----------------------------------------------------------------------------|
A|----------------------------------------------------------------------------|
E|----------------------------------------------------------------------------|

e|--9--8---6---8--------------------------------------------------------------|
B|----------------9--6--------------------------------------------------------|
G|-----------------------8--6--8--6-------------------------------------------|
D|----------------------------------------------------------------------------|
A|----------------------------------------------------------------------------|
E|----------------------------------------------------------------------------|

Composição de Tom Fletcher
1.584 exibições
    • ½ Tom
    • A
    • Bb
    • B
    • C
    • Db
    • D
    • Eb
    • E
    • F
    • F#
    • G
    • Ab
  • Adicionar à lista

    0 comentários

    Ver todos os comentários

    Conseguiu tocar?

    0 Tocaram 0 Ainda não

    Grave um vídeo tocando All About You e nos envie!

    00:00 / 00:00
    outros vídeos desta música
    repetir qualidade Automático
    Outros vídeos desta música
    00:00 / 00:00
    Automático

    Cifra Club Pro

    Aproveite o Cifra Club com benefícios exclusivos e sem anúncios
    Cifra Club Pro
    Aproveite o Cifra Club com benefícios exclusivos e sem anúncios
    OK