Notificações Amigos pendentes

      McFly

      Bubble Wrap

      567 exibições
      Verse 2 [Danny] , Bass begins at 1:49
      
      G|-------------------------------------|
      D|-------------------------------------|
      A|-431-134-431--1-3-4-431-134--431-----|
      E|-------------0--------------0--------|
      
      G|-------------------------------------|
      D|-------------------------------------|
      A|-------------------------------------|
      E|-0/18-18-16-14-2-4-6-0h18--11-0h11-2-|
      
      Chorus 2 [Danny] , Begins at 2:32
      
      G|-------------------------------------|
      D|-------------------------------------|
      A|-4--4-431--1-1-----------11-6-3------|
      E|---4------0---42-02-24-4-------------|
      
      G|-------------------------------------|
      D|-------------------------------------|
      A|-4--4-31-1/13-6-5-4-3----4-4-3-2-1---|
      E|---4------------------2--------------|
      
      Part with Tom. begins at 3:11
      
      G|-------------------------------------|
      D|-------------------------------------|
      A|-0-0h1p0--0-2-1h2p1-12-4----42-------|  [1 and 2, not 12]
      E|-------------------------014---------|
      
      G|---------------------------------------|
      D|----------------------------------6----|
      A|4----42-21-0---------------------6--6--|
      E|--014--------4h5\-3p2-233-34-334-----4-|
      
      Little bridge before the chorus (3:58)
      
      G|-------------------------------------|
      D|-------------------------------------|
      A|---[PIANO PART HERE :)]-----0--2-----|
      E|-------------------------------------|
      
      Final Chorus (4:03)
      
      G|-------------------------------------|
      D|-------------------------------------|
      A|-7--7--764--4-420-0h12-0-12-14--14---|
      E|---7-------4-------------------------|
      
      G|-------------------------------------|
      D|-------------------------------------|
      A|-1492--7--7--764--4--9-8-7-6-0--0h12-|  [14 here, not 1 and 4]
      E|---------7-------4-------------------|
      
      [Silence, (4:35)]
      
      G|-------------------------------------|
      D|-------------------------------------|
      A|-7--7-76-4--4-42------023-5----------|
      E|---7-------4-----5-45----------------|
        Composição: Tom FletcherColaboração e revisão:
        • Élison

        Comentários 0

        140 .
        140 cancelar

        conseguiu tocar?

        covers

        Grave um vídeo tocando Bubble Wrap e mande pra gente!

        Ex.: http://www.youtube.com/watch?v=0IvSvIwGdwk
        ver covers de outras músicas »
        0:00 / 0:00

        Capítulos

          1 versão de baixo exibições contribuição e correção
          play/pausefechar subir/descer velocidade
          6ª corda E5ª corda A4ª corda D3ª corda G2ª corda B1ª corda E
            acordes
            publicidade
            fechar
            ok