Dois Corações

Melim

Composição: Diogo Melim / Gabriela Melim / Rodrigo Melim
Tom: Db (forma dos acordes no tom de C ) Capotraste na 1ª casa
[Intro] C  F9  C  F9  C  G/B

[Tab - Intro]

[Parte 1 de 3]
   C    F6
E|---0--------------------------5-----------|
B|-3----6-----6-------6-----------8---------|
G|-0--------0-------0-------0---------------|
D|-2------7-------7-------7-----------------|
A|-3----8-------8-------8-----8-------------|
E|------------------------------------------|

[Parte 2 de 3]
   C       
E|-0-----0-------0--------------------------|
B|------------------------------------------|
G|-----0-------0-------0--------------------|
D|---2-------2-------2----------------------|
A|-3-------3-------3------------------------|
E|------------------------------------------|

[Parte 1 de 3]
   C    F6
E|---0--------------------------5-----------|
B|-3----6-----6-------6-----------8---------|
G|-0--------0-------0-------0---------------|
D|-2------7-------7-------7-----------------|
A|-3----8-------8-------8-----8-------------|
E|------------------------------------------|

[Parte 3 de 3]
   C                G/B
E|-0-----0----------------------------------|
B|------------------3-----3-----------------|
G|-----0-------0--------0-------0-----------|
D|---2-------2--------0-------0-------------|
A|-3-------3--------2-------2---------------|
E|------------------------------------------|

[Primeira parte]

         Am        G/B
Eu era apenas eu, nada demais
            F9
Chorava enquanto meu coração escondido
                C          G/B
Ia seguindo os teus sinais

       Am             G/B
Você era você, Tão especial
             F9
Me olhava igual sorriso de criança
                      C       G/B
Esperando o presente de Natal

[Tab - Primeira parte]

[Parte 1 de 4]
   Am       
E|------------------------------------------|
B|-------1-------1-------1------------------|
G|-----2-------2-------2-------2------------|
D|---2-------2-------2-------2--------------|
A|-0-------0-------0-------0----------------|
E|------------------------------------------|

[Parte 2 de 4]
   G/B      
E|------------------------------------------|
B|-------3-------3-------3------------------|
G|-----0-------0-------0-------0------------|
D|---0-------0-------0-------0--------------|
A|-2-------2-------2-------2----------------|
E|------------------------------------------|


[Parte 3 de 4]
   F9       
E|------------------------------------------|
B|-------1-------1-------1------------------|
G|-----0-------0-------0-------0------------|
D|---3-------3-------3-------3--------------|
A|------------------------------------------|
E|-1-------1-------1-------1----------------|

[Parte 4 de 4]
   C               G/B
E|------------------------------------------|
B|-------1---------------3------------------|
G|-----0-------0-------0-------0------------|
D|---2-------2-------0-------0--------------|
A|-3-------3-------2-------2----------------|
E|------------------------------------------|



[Pré-refrão]

 F9/A        G/B
Vi que era amor, quando te achei em mim
F9/A     C       Am  G/B
E me perdi em você___ê

[TAB - Pré-refrão]

[Parte 1 de 4]        
   F9/A     
E|------------------------------------------|
B|-------1-------1-------1------------------|
G|-----0-------0-------0-------0------------|
D|---3-------3-------3-------3--------------|
A|-0-------0-------0-------0----------------|
E|------------------------------------------|

[Parte 2 de 4]
   G/B      
E|------------------------------------------|
B|-------3-------3-------3------------------|
G|-----0-------0-------0-------0------------|
D|---0-------0-------0-------0--------------|
A|-2-------2-------2-------2----------------|
E|------------------------------------------|

[Parte 3 de 4]      
   F9/A            C
E|------------------------------------------|
B|-------1---------------1------------------|
G|-----0-------0-------0-------0------------|
D|---3-------3-------2-------2--------------|
A|-0-------0-------3-------3----------------|
E|------------------------------------------|

[Parte 4 de 4]
   Am              G/B
E|-----------------3------------------------|
B|-------1---------3------------------------|
G|-----2-------2---0------------------------|
D|---2-------2-----0------------------------|
A|-0-------0-------2------------------------|
E|------------------------------------------|

[Refrão]

       F9
Somos verso e poesia, outono e ventania
  C
Praia e carioca
       F9
Somos pão e padaria, piano e melodia
 C
Filme e pipoca
         F9                C
De dois corações um só se fez
        F9/A          G/B      C
Um que vale mais que dois ou três
      F9          C
Uh uh uuuh  Uh uh uuuhh
F9/A        G/B    C
Ow ow ow ow ow  ow ow


[Tab - Refrão]

[Parte 1 de 6]      
   F9       
E|------------------------------------------|
B|-------1-------1-------1------------------|
G|-----0-------0-------0-------0------------|
D|---3-------3-------3-------3--------------|
A|------------------------------------------|
E|-1-------1-------1-------1----------------|

[Parte 2 de 6]
   C
E|------------------------------------------|
B|-------1-------1-------1------------------|
G|-----0-------0-------0-------0------------|
D|---2-------2-------2-------2--------------|
A|-3-------3-------3-------3----------------|
E|------------------------------------------|

[Parte 1 de 6]      
   F9       
E|------------------------------------------|
B|-------1-------1-------1------------------|
G|-----0-------0-------0-------0------------|
D|---3-------3-------3-------3--------------|
A|------------------------------------------|
E|-1-------1-------1-------1----------------|

[Parte 2 de 6]
   C
E|------------------------------------------|
B|-------1-------1-------1------------------|
G|-----0-------0-------0-------0------------|
D|---2-------2-------2-------2--------------|
A|-3-------3-------3-------3----------------|
E|------------------------------------------|

[Parte 1 de 6]       
   F9       
E|------------------------------------------|
B|-------1-------1-------1------------------|
G|-----0-------0-------0-------0------------|
D|---3-------3-------3-------3--------------|
A|------------------------------------------|
E|-1-------1-------1-------1----------------|

[Parte 2 de 6]
   C
E|------------------------------------------|
B|-------1-------1-------1------------------|
G|-----0-------0-------0-------0------------|
D|---2-------2-------2-------2--------------|
A|-3-------3-------3-------3----------------|
E|------------------------------------------|

[Parte 3 de 6]        
   F9/A          G/B  C
E|----------------3-------------------------|
B|-------1--------3---------1-------1-------|
G|-----0-------0--0-------0-------0-------0-|
D|---3-------3----0-----2-------2-------2---|
A|-0-------0------2---3-------3-------3-----|
E|------------------------------------------|

[Parte 4 de 6]
   C    F9
E|---0--------------------------5-----------|
B|-3----6-----6-------6-----------8---------|
G|-0--------0-------0-------0---------------|
D|-2------7-------7-------7-----------------|
A|-3----8-------8-------8-----8-------------|
E|------------------------------------------|

[Parte 5 de 6]
   C       
E|-0-----0-------0-------0------------------|
B|------------------------------------------|
G|-----0-------0-------0-------0------------|
D|---2-------2-------2-------2--------------|
A|-3-------3-------3-------3----------------|
E|------------------------------------------|

[Parte 6 de 6] 
   F9/A  G/B  C
E|------------------------------------------|
B|-1-----3----------1-------1-------1-------|
G|-0-----0--------0-------0-------0-------0-|
D|-3-----0------2-------2-------2-------2---|
A|-0-----2----3-------3-------3-------3-----|
E|------------------------------------------|

[Pré-refrão]

 F9/A        G/B
Vi que era amor, quando te achei em mim
F9/A     C       Am  G/B
E me perdi em você___ê

[Refrão final]

       F9
Somos verso e poesia, outono e ventania
  C
Praia e carioca
       F9
Somos pão e padaria, piano e melodia
 C
Filme e pipoca
         F9                C
De dois corações um só se fez
        F9/A          G/B      C
Um que vale mais que dois ou três
      F9          C
Uh uh uuuh  Uh uh uuuhh
      F9          C
Uh uh uuuh  Uh uh uuuhh
      F9          C
Uh uh uuuh  Uh uh uuuhh
F9/A       G/B    C
Ow ow ow ow ow  ow ow
Página 1 / 1

Letras e título
Acordes e artista

resetar configurações
OK