Cifra Club

The Promise - Theme From The Piano

Michael Nyman

Cifra: Principal (violão e guitarra)
Selo Cifra Club: esta cifra foi revisada para atender aos critérios oficiais da nossa Equipe de Qualidade.
tom: E
E||--12------12-----12-----10------8------8-----12------8-----|
B||-------10-----10-----10------10-----10-----10-----10-----10|
G||-----9------9------9-------9------9------9------9------9---|
D||-----------------------------------------------------------|
A||-----------------------------------------------------------|
E||-----------------------------------------------------------|


E|--12-----12-----12------10------8------8-------------5-----|
B|-------10-----10-----10------10-----10-----10-10---7-----7-|
G|-----9------9------9-------9------9------9-------7-----7---|
D|-----------------------------------------------------------|
A|-----------------------------------------------------------|
E|-----------------------------------------------------------|

E|--5-----0-5---5-----0-7---5-----0-3---0-------7---|
B|----0-------0---0-------0---0-------0---0---0-----|
G|------5-----------5-----------5-----------5-----5-|
D|--------------------------------------------------|
A|--0-----------------------0-----------------------|
E|--------------------------------------------------|

E|--8-0---5-8---8-----5-12---10---------8---7--------8-7-|
B|------6-----5---5-6----------------10------------8-----|
G|-------------------------9----9-10------9---9-10-------|
D|-------------------------------------------------------|
A|--0----------------------------------------------------|
E|-------------------------------------------------------|

E|--5-------5---12--------8---5-------3---|-0------------------------|
B|--------5---5------8-10---8-------5---0-|------1---3-1-1---1---3-1-|
G|----4-5----------9------------4-5-------|----2---2-------2---2-----|
D|----------------------------------------|--------------------------|
A|----------------------------------------|--------------------------|
E|----------------------------------------|--------------------------|

E|--------------0-------4---5-----0-0--|
B|--3---0---3-----0-1-3---0---0--------|
G|----2---2---2-----------------5------|
D|-------------------------------------|
A|-------------------------------------|
E|-------------------------------------|

E|--12------12------12------10------8------8------12------8-----|
B|-------10------10------10------10-----10-----10------10-----10|
G|-----9-------9-------9-------9------9------9-------9------9---|
D|--------------------------------------------------------------|
A|--------------------------------------------------------------|
E|--------------------------------------------------------------|

E|--12------12------12------10------8------8-------------5------|
B|-------10------10------10------10-----10-----10-10---7-----7--|
G|-----9-------9-------9-------9------9------9-------7-----7----|
D|--------------------------------------------------------------|
A|--------------------------------------------------------------|
E|--------------------------------------------------------------|

E|--5-----0-5---5-----0-7---5-----0-3---|--0-------7---8-0---5-8---|
B|----0-------0---0-------0---0-------0-|----0---0---------6-----5-|
G|------5-----------5-----------5-------|------5-----5-------------|
D|--------------------------------------|--------------------------|
A|--0-----------------------0-----------|--------------------------|
E|--------------------------------------|--------------------------|

E|--8-----5-12---10---------8---7--------8-7-5-------5---|
B|----5-6----------------10------------8-----------5---5-|
G|-------------9----9-10------9---9-10---------4-5-------|
D|-------------------------------------------------------|
A|-------------------------------------------------------|
E|-------------------------------------------------------|

E|--12--------8---5-------3---0-----------------------|
B|-------8-10---8-------5---0-----1---3-1-1---1---3-1-|
G|-----9------------4-5---------2---2-------2---2-----|
D|----------------------------------------------------|
A|----------------------------------------------------|
E|----------------------------------------------------|

E|--------------0-------4---5-----0-------------5-8-|
B|--3---0---3-----0-1-3---0---0-----3-1-0-0-1-3-----|
G|----2---2---2-----------------5-------------------|
D|--------------------------------------------------|
A|--------------------------------------------------|
E|--------------------------------------------------|

E|--12------12------12------10------8------8------12------10------|
B|-------10------10------10------10-----10-----10------10------10-|
G|-----9-------9-------9-------9------9------9-------9-------9----|
D|----------------------------------------------------------------|
A|----------------------------------------------------------------|
E|----------------------------------------------------------------|

E|--12------12------12------10------8------8-------------5-----|
B|-------10------10------10------10-----10-----10-10---7-----7-|
G|-----9-------9-------9-------9------9------9-------7-----7---|
D|-------------------------------------------------------------|
A|-------------------------------------------------------------|
E|-------------------------------------------------------------|

E|----------------------0---------------------------|
B|--1-------0-1-1-----1---3-3-----1-----0---------0-|
G|------0-----------0-----------0-----0-----0---0---|
D|----2---2-------2-----------0-----0-----0---0-----|
A|--------------------------------------------------|
E|--0-----------------------------------------------|

E|------------0-----------0-------0-----0-----0-5-7-|
B|--1-----0-------1-----1---0---0-----0-----0-------|
G|------2-------2-----2-----------------------------|
D|----2-----2-------2---------2-----2-----2---------|
A|--------------------------------------------------|
E|--------------------------------------------------|

E|--8-0---5-8---8-----5-12----10------8------7-----10------|
B|------6-----5---5-6------12------------------------------|
G|-------------------------------9-10---9-10---9-10---9-10-|
D|---------------------------------------------------------|
A|---------------------------------------------------------|
E|---------------------------------------------------------|

E|--8-----8---8----0-7-5-3-0-------5---5-----0-5-8-|
B|------5----------------------1-3---3-----3-------|
G|----7-----7----7-----------2-----------5---------|
D|-------------------------------------------------|
A|-------------------------------------------------|
E|-------------------------------------------------|

E|--8---0---8---15-12-------10-8-7---------8-10-----8-7-5-|
B|--------8---8-------13--8----------8---8--------8-------|
G|----7----------------------------7---7--------7---------|
D|--------------------------------------------------------|
A|--------------------------------------------------------|
E|--------------------------------------------------------|

E|--7-----5-8-7-5-8-----5-8-7-0-4-12-----12-----------|
B|------5-------------5--------------9-12---10-9-12---|
G|----5-------------5-------------------------------9-|
D|----------------------------------------------------|
A|----------------------------------------------------|
E|----------------------------------------------------|

E|--------------------------------5---0-7-0-5-7-12---|
B|----------8-5-8-----6-5-3-5---3---3--------------9-|
G|--9---5-7---------7---------2----------------------|
D|----7-----------7----------------------------------|
A|---------------------------------------------------|
E|---------------------------------------------------|

E|--8-------5---8---0-7-5-3-5-----5-----5-------5-8-|
B|------5-----5---------------0-----0-------1-3-----|
G|----7---7-------7-------------5-----5---2---------|
D|--------------------------------------------------|
A|--------------------------------------------------|
E|--------------------------------------------------|

E|--12------12------12------10------8-------8------12------8-----|
B|-------10------10------10------10------10-----10------10-----10|
G|-----9-------9-------9-------9-------9------9-------9------9---|
D|---------------------------------------------------------------|
A|---------------------------------------------------------------|
E|---------------------------------------------------------------|

E|--12------12------12------10------8------8-------------5----|
B|-------10------10------10------10-----10-----10-10---7-----7|
G|-----9-------9-------9-------9------9------9-------7-----7--|
D|------------------------------------------------------------|
A|------------------------------------------------------------|
E|------------------------------------------------------------|

E|--5-----0-5---5-----0-7---5-----0-3---0-------7---|
B|----0-------0---0-------0---0-------0---0---0-----|
G|------5-----------5-----------5-----------5-----5-|
D|--------------------------------------------------|
A|--0-----------------------0-----------------------|
E|--------------------------------------------------|

E|--8-0---5-8---8-----5-12---10---------8---7--------8-7-|
B|------6-----5---5-6----------------10------------8-----|
G|-------------------------9----9-10------9---9-10-------|
D|-------------------------------------------------------|
A|--0----------------------------------------------------|
E|-------------------------------------------------------|

E|--5-------5---12--------8---5-------3---0-----------|
B|--------5---5------8-10---8-------5---0-----1---3-1-|
G|----4-5----------9------------4-5---------2---2-----|
D|----------------------------------------------------|
A|----------------------------------------------------|
E|----------------------------------------------------|

E|--------------------------0-------4---5-----0-3-0-|
B|--1---1---3-1-3---0---3-----0-1-3---0---0---------|
G|----2---2-------2---2---2-----------------5-------|
D|--------------------------------------------------|
A|--------------------------------------------------|
E|--------------------------------------------------|

E|--5-----0-5---5-----0-7---5-----0-3---0-------7---|
B|----0-------0---0-------0---0-------0---0---0-----|
G|------5-----------5-----------5-----------5-----5-|
D|--------------------------------------------------|
A|--------------------------------------------------|
E|--------------------------------------------------|

E|--8-0---5-8---8-----5-12---10---------8---7--------8-7-|
B|------6-----5---5-6----------------10------------8-----|
G|-------------------------9----9-10------9---9-10-------|
D|-------------------------------------------------------|
A|-------------------------------------------------------|
E|-------------------------------------------------------|

E|--5-------5---12--------8---5-------3---0-----------|
B|--------5---5------8-10---8-------5---0-----1---3-1-|
G|----4-5----------9------------4-5---------2---2-----|
D|-----------------------------------------------------|
A|-----------------------------------------------------|
E|-----------------------------------------------------|

E|--------------------------0-------4---|--5-----0-------------5-8-|
B|--1---1---3-1-3---0---3-----0-1-3---0-|----0-----3-1-0-0-1-3-----|
G|----2---2-------2---2---2-------------|------5-------------------|
D|--------------------------------------|--------------------------|
A|--------------------------------------|--------------------------|
E|--------------------------------------|--------------------------|

E|--12------12------12------10------8------8-----12------8------|
B|-------10------10------10------10-----10-----10-----10-----10-|
G|-----9-------9-------9-------9------9------9------9------9----|
D|--------------------------------------------------------------|
A|--------------------------------------------------------------|
E|--------------------------------------------------------------|

E|--12------12------12------10------8------8------10-----8-----|
B|-------10------10------10------10--------------------7-----7-|
G|-----9-------9-------9-------9---------9------9----7-----5---|
D|------------------------------------10-----10----------------|
A|-------------------------------------------------------------|
E|-------------------------------------------------------------|

E|--12------12------12------10----8------8---12------10----12------|
B|-------10------10------10----10-----10----------10------------10-|
G|-----9-------9-------9------------9------9----9-------9-----9----|
D|-----------------------------------------------------------------|
A|-----------------------------------------------------------------|
E|-----------------------------------------------------------------|

E|---12---12-------10----8------8-----------5---5-----5----|
B|-------------10-----10-----10-----10----7---7-----7------|
G|------9----9-------------9------9-----7---------7------7-|
D|---------------------------------------------------------|
A|---------------------------------------------------------|
E|---------------------------------------------------------|

E|----------------------0---------------------------|
B|--1-------0-1-1-----1---3-3-----1-----0---------0-|
G|------0-----------0-----------0-----0-----0---0---|
D|----2---2-------2-----------0-----0-----0---0-----|
A|--------------------------------------------------|
E|--0-----------------------------------------------|

E|------------0-----------0-------0-----0-----0-5-7-|
B|--1-----0-------1-----1---0---0-----0-----0-------|
G|------2-------2-----2-----------------------------|
D|----2-----2-------2---------2-----2-----2---------|
A|--------------------------------------------------|
E|--------------------------------------------------|

E|--8-0---5-8---8-----5-12----10------8------7-----10------|
B|------6-----5---5-6------10------------------------------|
G|-------------------------------9-10---9-10---9-10---9-10-|
D|---------------------------------------------------------|
A|---------------------------------------------------------|
E|---------------------------------------------------------|

E|--8-----8---8---0-7-5-3-0-------5---5-----0-5-8-|
B|------5---------------------1-3---3-----3-------|
G|----7-----7---7-----------2-----------5---------|
D|------------------------------------------------|
A|------------------------------------------------|
E|------------------------------------------------|

E|--8---0---8---15-12------10-8-7---------8-10-----8-7-5-|
B|--------8---8-------13-8----------8---8--------8-------|
G|----7---------------------------7---7--------7---------|
D|-------------------------------------------------------|
A|-------------------------------------------------------|
E|-------------------------------------------------------|

E|--7-----5-8-7-5-8-----5-8-7-0-4-12-----12-----------|
B|------5-------------5--------------9-12---10-9-12---|
G|----5-------------5-------------------------------9-|
D|----------------------------------------------------|
A|----------------------------------------------------|
E|----------------------------------------------------|

E|--------------------------------5---0-7-0-5-7-12---|
B|----------8-5-8-----6-5-3-5---3---3--------------9-|
G|--9---5-7---------7---------2----------------------|
D|----7-----------7----------------------------------|
A|---------------------------------------------------|
E|---------------------------------------------------|

E|--8-------5---8---0-7-5-3-5-----5-----5------|--------------------------| |
B|------5-----5---------------0-----0---5------|--------------------------| |
G|----7---7-------7-------------5-----5--------|--------------------------| |
D|--------------------------------------7------|--------------------------| |
A|---------------------------------------------|--------------------------| |
E|---------------------------------------------|--------------------------| |


******************************************************************************
******************************************************************************

The Piano Theme
by Michael Nyman
Transcribed by David Magalhгes (faticata@mail.pt)
Helped By GP3 Guitar Program

                            
E||--------------------------|
B||--------------------------|
G||--------------------------|
D||--------------------------|
A||--------------------------|
E||--------------------------|


                                                             
E|--12-0----12-0----12-0----10-0----8-0-5-8-0-5-12-0----8-0-5-|
B|-------10------10------10------10------------------10-------|
G|------------------------------------------------------------|
D|------------------------------------------------------------|
A|------------------------------------------------------------|
E|------------------------------------------------------------|


                                                           
E|--12-0----12-0----12-0----10-0----8-0-5-8-0-5-5---2-5---2-|
B|-------10------10------10------10---------------3-----3---|
G|----------------------------------------------------------|
D|----------------------------------------------------------|
A|----------------------------------------------------------|
E|----------------------------------------------------------|


                                                   
E|--5-----0-5---5-----0-7---5-----0-3---0-------7---|
B|----0-------0---0-------0---0-------0---0-1-0-----|
G|------5-----------5-----------5-----------------5-|
D|--------------------------------------------------|
A|--------------------------------------------------|
E|--------------------------------------------------|


                                                       
E|--8-0---5-8-0-8-0---5-12-0-10-0-------8---7-------8-7-|
B|------6-----------6----------------10---------6-8-----|
G|--------------------------------10------9---9---------|
D|------------------------------------------------------|
A|------------------------------------------------------|
E|------------------------------------------------------|


                                                                     
E|--5-------5---12-0-------8---5-------3---|--0-----------------------|
B|--------5---5---------10---8-------5---0-|------1---3-1-1---1---3-1-|
G|----4-5------------12----------4-5-------|----2---2-------2---2-----|
D|-----------------------------------------|--------------------------|
A|-----------------------------------------|--------------------------|
E|-----------------------------------------|--------------------------|


                                      
E|--------------0-------4---5-----0-0--|
B|--3---0---3-----0-1-3---0---0--------|
G|----2---2---2-----------------5------|
D|-------------------------------------|
A|-------------------------------------|
E|-------------------------------------|


                                                             
E|--12-0----12-0----12-0----10-0----8-0-5-8-0-5-12-0----8-0-5-|
B|-------10------10------10------10------------------10-------|
G|------------------------------------------------------------|
D|------------------------------------------------------------|
A|------------------------------------------------------------|
E|------------------------------------------------------------|


                                                           
E|--12-0----12-0----12-0----10-0----8-0-5-8-0-5-5---2-5---2-|
B|-------10------10------10------10---------------3-----3---|
G|----------------------------------------------------------|
D|----------------------------------------------------------|
A|----------------------------------------------------------|
E|----------------------------------------------------------|


                                                                  
E|--5-----0-5---5-----0-7---5-----0-3---|--0-------7---8-0---5-8-0-|
B|----0-------0---0-------0---0-------0-|----0-1-0---------6-------|
G|------5-----------5-----------5-------|------------5-------------|
D|--------------------------------------|--------------------------|
A|--------------------------------------|--------------------------|
E|--------------------------------------|--------------------------|


                                                       
E|--8-0---5-12-0-10-0-------8---7-------8-7-5-------5---|
B|------6----------------10---------6-8-----------5---5-|
G|--------------------10------9---9-----------4-5-------|
D|------------------------------------------------------|
A|------------------------------------------------------|
E|------------------------------------------------------|


                                                      
E|--12-0-------8---5-------3---0-----------------------|
B|----------10---8-------5---0-----1---3-1-1---1---3-1-|
G|-------12----------4-5---------2---2-------2---2-----|
D|-----------------------------------------------------|
A|-----------------------------------------------------|
E|-----------------------------------------------------|


                                                   
E|--------------0-------4---5-----0-------------5-8-|
B|--3---0---3-----0-1-3---0---0-----3-1-0-0-1-3-----|
G|----2---2---2-----------------5-------------------|
D|--------------------------------------------------|
A|--------------------------------------------------|
E|--------------------------------------------------|


                                                               
E|--12-0----12-0----12-0----10-0----8-0-5-8-0-5-12-0----10-0----|
B|-------10------10------10------10------------------10------10-|
G|--------------------------------------------------------------|
D|--------------------------------------------------------------|
A|--------------------------------------------------------------|
E|--------------------------------------------------------------|


                                                           
E|--12-0----12-0----12-0----10-0----8-0-5-8-0-5-5---2-5---2-|
B|-------10------10------10------10---------------3-----3---|
G|----------------------------------------------------------|
D|----------------------------------------------------------|
A|----------------------------------------------------------|
E|----------------------------------------------------------|


                                                   
E|----------------------0---------------------------|
B|--1-------0-1-1-----1---3-3-----1-----0---------0-|
G|------0-----------0-----------0-----0-----0---0---|
D|----2---2-------2-----------0-----0-----0---0-----|
A|--------------------------------------------------|
E|--------------------------------------------------|


                                                   
E|------------0-----------0-------0-----0-----0-5-7-|
B|--1-----0-------1-----1---0---0-----0-----0-------|
G|------2-------2-----2-----------------------------|
D|----2-----2-------2---------2-----2-----2---------|
A|--------------------------------------------------|
E|--------------------------------------------------|


                                                          
E|--8-0---5-8-0-8-0---5-12----10------8------7-----10------|
B|------6-----------6------12--------------------6---------|
G|-------------------------------9-10---9-10---9------9-10-|
D|---------------------------------------------------------|
A|---------------------------------------------------------|
E|---------------------------------------------------------|


                                                   
E|--8-----8---0-8---0-7-5-3-0-------5---5-----0-5-8-|
B|------5-----------------------1-3---3-----3-------|
G|----7-----7-----7-----------2-----------5---------|
D|--------------------------------------------------|
A|--------------------------------------------------|
E|--------------------------------------------------|


                                                         
E|--8---0-3-8---15-12-------10-8-7---------8-10-----8-7-5-|
B|------------8-------13-------------8---8--------8-------|
G|----7------------------12--------7---7--------7---------|
D|--------------------------------------------------------|
A|--------------------------------------------------------|
E|--------------------------------------------------------|


                                                       
E|--7-----5-8-7-5-8-----5-8-7-0-4-12---7-12---------7---|
B|------5-------------5--------------9------12-10-9-----|
G|----5-------------5---------------------------------9-|
D|------------------------------------------------------|
A|------------------------------------------------------|
E|------------------------------------------------------|


                                                    
E|------------0-------------0-----5---0-7-0-5-7-12---|
B|----------8---8-----6-5-3-----3---3--------------9-|
G|--9---5-7---------7---------2----------------------|
D|----7-----------7----------------------------------|
A|---------------------------------------------------|
E|---------------------------------------------------|


                                                   
E|--8-------5---8---0-7-5-3-5-----5-----5-------5-8-|
B|------5-----5---------------0-----0-------1-3-----|
G|----7---7-------7-------------5-----5---2---------|
D|--------------------------------------------------|
A|--------------------------------------------------|
E|--------------------------------------------------|


                                                             
E|--12-0----12-0----12-0----10-0----8-0-5-8-0-5-12-0----8-0-5-|
B|-------10------10------10------10------------------10-------|
G|------------------------------------------------------------|
D|------------------------------------------------------------|
A|------------------------------------------------------------|
E|------------------------------------------------------------|


                                                           
E|--12-0----12-0----12-0----10-0----8-0-5-8-0-5-5---2-5---2-|
B|-------10------10------10------10---------------3-----3---|
G|----------------------------------------------------------|
D|----------------------------------------------------------|
A|----------------------------------------------------------|
E|----------------------------------------------------------|


                                                   
E|--5-----0-5---5-----0-7---5-----0-3---0-------7---|
B|----0-------0---0-------0---0-------0---0-1-3-0---|
G|------5-----------5-----------5-----------------5-|
D|--------------------------------------------------|
A|--------------------------------------------------|
E|--------------------------------------------------|


                                                       
E|--8-0---5-8-0-8-0---5-12-0-10-0-------8---7-------8-7-|
B|------6-----------6----------------10---------6-8-----|
G|--------------------------------10------9---9---------|
D|------------------------------------------------------|
A|------------------------------------------------------|
E|------------------------------------------------------|


                                                      
E|--5-------5---12-0-------8---5-------3---0-----------|
B|--------5---5---------10---8-------5---0-----1---3-1-|
G|----4-5------------12----------4-5---------2---2-----|
D|-----------------------------------------------------|
A|-----------------------------------------------------|
E|-----------------------------------------------------|


                                                   
E|--------------------------0-------4---5-----0-3-0-|
B|--1---1---3-1-3---0---3-----0-1-3---0---0---------|
G|----2---2-------2---2---2-----------------5-------|
D|--------------------------------------------------|
A|--------------------------------------------------|
E|--------------------------------------------------|


                                                   
E|--5-----0-5---5-----0-7---5-----0-3---0-------7---|
B|----0-------0---0-------0---0-------0---0-1-3-0---|
G|------5-----------5-----------5-----------------5-|
D|--------------------------------------------------|
A|--------------------------------------------------|
E|--------------------------------------------------|


                                                       
E|--8-0---5-8-0-8-0---5-12-0-10-0-------8---7-------8-7-|
B|------6-----------6----------------10---------6-8-----|
G|--------------------------------10------9---9---------|
D|------------------------------------------------------|
A|------------------------------------------------------|
E|------------------------------------------------------|


                                                      
E|--5-------5---12-0-------8---5-------3---0-----------|
B|--------5---5---------10---8-------5---0-----1---3-1-|
G|----4-5------------12----------4-5---------2---2-----|
D|-----------------------------------------------------|
A|-----------------------------------------------------|
E|-----------------------------------------------------|


                                                                  
E|--------------------------0-------4---|--5-----0-------------5-8-|
B|--1---1---3-1-3---0---3-----0-1-3---0-|----0-----3-1-0-0-1-3-----|
G|----2---2-------2---2---2-------------|------5-------------------|
D|--------------------------------------|--------------------------|
A|--------------------------------------|--------------------------|
E|--------------------------------------|--------------------------|


                                                            
E|--12-0----12-0----12-0----10---5-8-0-5-8-0-5-12-0----8-0-5-|
B|-------10------10------10-------------------------10-------|
G|-----------------------------7-----------------------------|
D|-----------------------------------------------------------|
A|-----------------------------------------------------------|
E|-----------------------------------------------------------|


                                                              
E|--12-0----12-0----12-0----10-0----8------8------10-----8-----|
B|-------10------10------10------10--------------------7-----7-|
G|---------------------------------------9------9----7-----5---|
D|------------------------------------10-----10----------------|
A|-------------------------------------------------------------|
E|-------------------------------------------------------------|


                                                                  
E|--12-0----12-0----12-0----10----8------8---12------10----12------|
B|-------10------10------10----10-----10----------10------------10-|
G|----------------------------------9------9----9-------9-----9----|
D|-----------------------------------------------------------------|
A|-----------------------------------------------------------------|
E|-----------------------------------------------------------------|


                                                          
E|---12---12-------10----8------8-----------5---5-----5----|
B|-------------10-----10-----10-----10----7---7-----7------|
G|------9----9-------------9------9-----7---------7------7-|
D|---------------------------------------------------------|
A|---------------------------------------------------------|
E|---------------------------------------------------------|


                                                   
E|----------------------0---------------------------|
B|----------0---------1---3-3-----1-----0---------0-|
G|--5---------5-5---0-----------0-----0-----0---0---|
D|------5---------2-----------0-----0-----0---0-----|
A|----7---7-----------------------------------------|
E|--------------------------------------------------|


                                                   
E|------------0-----------0-------0-----0-----0-5-7-|
B|--1-----0-------1-----1---0---0-----0-----0-------|
G|------2-------2-----2-----------------------------|
D|----2-----2-------2---------2-----2-----2---------|
A|--------------------------------------------------|
E|--------------------------------------------------|


                                                          
E|--8-0---5-8-0-8-0---5-12----10------8------7-----10------|
B|------6-----------6------10--------------------6---------|
G|-------------------------------9-10---9-10---9------9-10-|
D|---------------------------------------------------------|
A|---------------------------------------------------------|
E|---------------------------------------------------------|


                                                   
E|--8-----8---0-8---0-7-5-3-0-------5---5-----0-5-8-|
B|------5-----------------------1-3---3-----3-------|
G|----7-----7-----7-----------2-----------5---------|
D|--------------------------------------------------|
A|--------------------------------------------------|
E|--------------------------------------------------|


                                                         
E|--8---0-3-8---15-12-------10-8-7---------8-10-----8-7-5-|
B|------------8-------13-------------8---8--------8-------|
G|----7------------------12--------7---7--------7---------|
D|--------------------------------------------------------|
A|--------------------------------------------------------|
E|--------------------------------------------------------|


                                                       
E|--7-----5-8-7-5-8-----5-8-7-0-4-12---7-12---------7---|
B|------5-------------5--------------9------12-10-9-----|
G|----5-------------5---------------------------------9-|
D|------------------------------------------------------|
A|------------------------------------------------------|
E|------------------------------------------------------|


                                                    
E|------------0-------------0-----5---0-7-0-5-7-12---|
B|----------8---8-----6-5-3-----3---3--------------9-|
G|--9---5-7---------7---------2----------------------|
D|----7-----------7----------------------------------|
A|---------------------------------------------------|
E|---------------------------------------------------|
Outros vídeos desta música
    5 exibições
      • ½ Tom
      • A
      • Bb
      • B
      • C
      • Db
      • D
      • Eb
      • E
      • F
      • F#
      • G
      • Ab
    • Adicionar à lista

    Afinação da cifra

    Afinador online

      0 comentários

      Ver todos os comentários

      Entre para o Cifra Club PRO

      Tenha acesso a benefícios exclusivos no App e no Site

      • Chega de anúncios

      • Badges exclusivas

      • Mais recursos no app do Afinador

      • Atendimento Prioritário

      • Aumente seu limite de lista

      • Ajude a produzir mais conteúdo

      Cifra Club Pro

      Aproveite o Cifra Club com benefícios exclusivos e sem anúncios
      Cifra Club Pro
      Aproveite o Cifra Club com benefícios exclusivos e sem anúncios
      OK