Cifra Club

Aprenda

I Took a Pill In Ibiza

Mike Posner

Cifra: Principal (violão e guitarra)
Tom: Bb (forma dos acordes no tom de G) Capotraste na 3ª casa
[Intro]

E|-------------------------------------------------------|
B|-----3---------3-----------------------3---------3-----|
G|-----2h4---(4)-4p2p0-----0----x--0-----2h4---(4)-4p2p0-|
D|-------------------------0----x--0---------------------|
A|-------------------------------------------------------|
E|-------------------------3----3--3---------------------|

                     
E|--------------0h2---------------------------------------------------|
B|----3---------3-------3-----3-------------3----x--3--------3--------|
G|----0h2-------2-------2h4---4p2p0---------0----x--0--------0--------|
D|----0----0--------0-----------------------0h2--x--2--------0h2-0----|
A|------------------------------------------3----3--3-----3--------3--|
E|--------------------------------------------------------------------|

E|------------------------------------------------------------------------------------------------------0h2---|
B|----3-----x--3-------------------3---------------(3)---x--3----------------3-(3)------------3---------3-----|
G|----x-----x--x-----------(0)-2h4---4p2p0--(0)-2---0----x--0------(0)--2h4-----4p2p0---------0h2-------2-----|
D|----0-----x--0------------------------------------0----x--0---------------------------------0-----(0)-------|
A|----0h2---x--2-------(2)--------------------------x----x--x-------------------------------------------------|
E|----3-----3--3------------------------------------3----3--3-------------------------------------------------|

E|---------------------------------------------------------------|
B|----------3-----3-------------3----x--3-----------------(3)----|
G|----------2h4---4p2p0---------0----x--0------------------0-----|
D|------------------------------0h2--x--2-------0-2--------0-----|
A|------------------------------3----3--3-----3-----3-(0)--0h2---|
E|---------------------------------------------------------3-----|

                  G
I took a pill in Ibiza
         Dsus4       D
To show Avicii I was cool
           C9
And when I finally got sober, felt 10 years older
     G
But fuck it, it was something to do
                G
I'm living out in LA
           Dsus4             D
I drive a sports car just to prove
      C9
I'm a real big baller cause I made a million dollars
      G
And I spend it on girls and shoes

                       Em7
But you don't wanna be high like me
                      D
Never really knowing why like me
                      C9                                       G
You don't ever wanna step off that roller coaster and be all alone
                         Em7
You don't wanna ride the bus like this
                     D
Never knowing who to trust like this
                   C9
You don't wanna be stuck up on that stage singing

Stuck up on that stage singing

G      D            C9         G
All I know are sad songs, sad songs
         G      D            C9         G
Darling, all I know are sad songs, sad songs

        G         D       Dsus4
I'm just a singer who already blew his shot
     C9
I get along with old timers
                 G
Cause my name's a reminder of a pop song people forgot
             G
And I can't keep a girl, no
    D
Cause as soon as the sun comes up
  C9
I cut 'em all loose and work's my excuse
     G                       (D5/F#)
But the truth is I can't open up

                       Em7
But you don't wanna be high like me
                      D
Never really knowing why like me
                      C9                                       G
You don't ever wanna step off that roller coaster and be all alone
                         Em7
You don't wanna ride the bus like this
                     D
Never knowing who to trust like this
                   C9
You don't wanna be stuck up on that stage singing

Stuck up on that stage singing

G      D            C9         G
All I know are sad songs, sad songs
         G      D            C9         G
Darling, all I know are sad songs, sad songs

[Solo]  G  D  C9  C9

              G
I took a plane to my home town
        Dsus4        D
I brought my pride and my guitar
     C9
All my friends are all gone but there's manicured lawns
     G
And the people still think I'm a star
          G
I walked around downtown
       D
I met some fans on Lafayette
      C9
They said tell us how to make it cause we're getting real impatient
   G                             (D5/F#)
So I looked 'em in the eye and said

                       Em7
But you don't wanna be high like me
                      D
Never really knowing why like me
                      C9                                       G
You don't ever wanna step off that roller coaster and be all alone
                         Em7
You don't wanna ride the bus like this
                     D
Never knowing who to trust like this
                   C9
You don't wanna be stuck up on that stage singing

Stuck up on that stage singing

G      D            C9         G
All I know are sad songs, sad songs
         G      D            C9         G
Darling, all I know are sad songs, sad songs
Composição de Mike Posner
Colaboração e revisão:
45.311 exibições
    • ½ Tom
    • A
    • Bb
    • B
    • C
    • Db
    • D
    • Eb
    • E
    • F
    • F#
    • G
    • Ab
  • Adicionar à lista

    0 comentários

    Mostrar mais comentários

    Conseguiu tocar?

    8 Tocaram 2 Ainda não

    Grave um vídeo tocando I Took a Pill In Ibiza e mande pra gente!

    00:00 / 00:00
    outros vídeos desta música
    repetir qualidade Automático
    Outros vídeos desta música
    00:00 / 00:00
    Automático

    Cifra Club Pro

    Aproveite o Cifra Club com benefícios exclusivos e sem anúncios
    7 dias grátis
    Cifra Club Pro
    Aproveite o Cifra Club com benefícios exclusivos e sem anúncios
    7 dias grátis
    OK