Cifra Club

Aprenda

A Un Minuto de Tí

Mikel Erentxun

Cifra: Completa (violão e guitarra)
tom: C
Introd.

    Am
E|----------0--------|-----------0---0--|
B|-------0----0---0--|--------0------0--|
G|-----5--------5----|------5--------5--|
D|---7--------------7|----7----------7--|
A|-0-----------------|--0------------0--|
E|-------------------|------------------|


Guitarra 1 (acompanhamento):  G F Am G - 2x
Guitarra 2 (solo):

    G                     F                      Am
E|----10-----10------------|-----------------------|
B|----10b12--10b12--8-8h10-|-----8----------5------|
G|-------------------------|-7/9---9--7/5-7---7-5--|
D|-------------------------|-----------------------|
A|-------------------------|-----------------------|
E|-------------------------|-----------------------|

               G
E|--------------------------------------|
B|--------------------------------------|
G|-4/5-5-5--4---------------------------|
D|-7---7-7----5------5-7-7b8--5---5-5h7-|
A|---------------5h7------------7-------|
E|--------------------------------------|

                               F               Am
E|--10h12p10-10--10/8-8/7-7/5-5--5-5|------8-8--8------|
B|----------------------------------|-8h10--------8/10-|
G|----------------------------------|------------------|
D|----------------------------------|------------------|
A|----------------------------------|------------------|
E|----------------------------------|------------------|

            G
E|----------------|
B|-5--------------|
G|-7b9-5-5h7--5-4-|
D|----------------|
A|----------------|
E|----------------|

Verso 1:
G                   F
Antes de tres lunas volveré por ti,
Am                     G
antes que me eches de menos".
                     F
Dejaste vías muertas tendidas al pasar,
Am                     G
nunca te he esperado tanto.


Refrão:
       F          C        G       Em
A un minuto de ti, voy detrás de ti.
       F          C         G
A un minuto de ti, te seguiré.

Verso 2:
G                        F                (riff 1)
El viento se ha calzado sus guantes de piel,
Am                   G    (riff 2)
se entretiene con mi pelo.
                      F               (riff 3)
Bebo el agua que viene conmigo, estoy
Am                  G   (riff 4)
estancado en tu reflejo.

Riff 1:
E|---------------------|
B|-----------------8-8-|
G|-----5-7-5 7-7/9-----|
D|-5h7-----------------|
A|---------------------|
E|---------------------|

Riff 2:
E|---------------------|
B|---------------------|
G|-4h5-4-4-------------|
D|----------5-----5----|
A|--------------7------|
E|---------------------|

Riff 3:
E|-------8-------------|
B|--8-10---10-8-8/10---|
G|---------------------|
D|---------------------|
A|---------------------|
E|---------------------|

Riff 4:
E|-------7-------------|
B|---------------------|
G|---5/7---------------|
D|---------------------|
A|---------------------|
E|---------------------|




Refrão:
       F        C         G    Em
Solamente de ti, gota a gota,
       F        C          G
solamente de ti, veneno y sed.

Verso 3:
G      D D4 D  Am                 C
Llegaré        solo hasta el umbral.
G      D    Am           C
Nada mas     qué puedo perder!
G          D   Am
Me atreveré,   cuento un paso más.
G       D   Am          C
Nada mas    No soy como tú.

Solo - Guitarra 1 (acompanhamento):  G F Am G -  2x
Guitarra 2 (solo):
   G                           F
E|-------------------------|----------------------------|
B|-------------------------|----------------------------|
G|---0h2-2-2-2-2-0---0-0h2-|--7/8----7----5-5--5--------|
D|-----------------2-------|--7/8--7---7---------7--5-7-|
A|-------------------------|----------------------------|
E|-------------------------|----------------------------|

   Am                                     G
E|--10b12-10b12-10-10-8-------|----------7-7-8-7------------------|
B|----------------------10-10-|-----8-10---------10-8-10-8--10--8-|
G|----------------------------|-7h9-------------------------------|
D|----------------------------|-----------------------------------|
A|----------------------------|-----------------------------------|
E|----------------------------|-----------------------------------|

                                  F
E|--10/12-10/12--12/15--12/10-10-10-----------------|
B|----------------------------------13-13--12-10----|
G|-----------------------------------------------12-|
D|--------------------------------------------------|
A|--------------------------------------------------|
E|--------------------------------------------------|

                 Am                                    G
E|----------------------------------|-------------------------7-|
B|-13-13----------------------------|---------------------------|
G|-12-12-12-12-12h14-12-------------|--5h7p5---5h7p5------5/7---|
D|----------------------14-12-10-10-|--------7-------7-5--------|
A|----------------------------------|---------------------------|
E|----------------------------------|---------------------------|



Refrão:
A un minuto de ti, voy detrás de ti.
A un minuto de ti, te seguiré.

Verso 4 (2x):
Voy a arder, braceo en espiral,
me vuelvo a repetir.
Saltaré, planeo en derredor
no soy como tú.
Composição de Mikel Erentxun
Colaboração e revisão:
  • Hugo
9.165 exibições
    • ½ Tom
    • A
    • Bb
    • B
    • C
    • Db
    • D
    • Eb
    • E
    • F
    • F#
    • G
    • Ab
  • Adicionar à lista

    0 comentários

    Ver todos os comentários

    Conseguiu tocar?

    1 Tocaram 0 Ainda não

    Grave um vídeo tocando A Un Minuto de Tí e nos envie!

    00:00 / 00:00
    outros vídeos desta música
    repetir qualidade Automático
    Outros vídeos desta música
    00:00 / 00:00
    Automático

    Cifra Club Pro

    Aproveite o Cifra Club com benefícios exclusivos e sem anúncios
    Cifra Club Pro
    Aproveite o Cifra Club com benefícios exclusivos e sem anúncios
    OK