Cifra Club

Todo Teu

Ministério Missionário Shalom

Cifra: Principal (violão e guitarra)
tom: D
[Intro] D9  A9  Bm  G
        D9  A9  Bm  G

          D9            A9
Em cada passo, em cada prece
          Bm           G
No menor gesto lá estarás
          D9              A9
No meu silêncio, no meu falar
           Bm            G
Mãe, vem comigo sempre estar
           D9          A9
Nas minhas dores e alegrias
        Bm            G
Todo momento, lá estarás
         D9            A9
No pensamento, no meu olhar
          Bm            G
Mãe vem comigo sempre estar

         D9       A9
Sou todo teu, oh Mãe
         D/F#      G
Sou todo teu, Maria
         Bm
Sou todo teu
           A9         G
Guarda no céu o meu lugar (2x)

             Em            G
Tu serás, oh Mãe, minha rainha
         D/F#          A9
E O teu Filho, O meu Rei
          Em             G
Essa vida não será mais minha
            D/F#          A
Um livre escravo, teu, serei

          Em            G
Tu serás, oh Mãe, minha rainha
         D/F#          A9
E O teu Filho, O meu Rei
          Em             G
Essa vida não será mais minha
               Bm           A
Um livre escravo, teu, serei

[Solo] Em  G  Bm  A9 
       Em  G  Bm  D/F#   G


E|-----------7----10~---------------------------------12-10-9----------------|
B|7b8r7-7b8r7-7/10----------------------10-8-7-----10---------12-10-10/12~---|
G|-----7--------------9/11-11-9-7-9~--7--------9-7---------------------------|
D|---------------------------------------------------------------------------|
A|--------------------7/9| —-9—-7-5-7~---------------------------------------|
E|---------------------------------------------------------------------------|

                        H                                                           H
E|-------------------------------------------15----------------17-17--------------------------|
B|14b15r14-12--------------------17-19-17b19----17-15-17/19-17-------14-15-14-15p14-15-/20-20~|
G|------------\9-9b10r9-7~-14-16--------------------------------------------------------------|
D|--------------------------------------------------------------------------------------------|
A|--------------------------------------------------------------------------------------------|
E|--------------------------------------------------------------------------------------------|


         E        B
Sou todo teu, oh Mãe
         E/G#     A
Sou todo teu, Maria
         C#m
Sou todo teu
           B          A    B
Guarda no céu o meu lugar

       E        B
Sou todo teu, oh Mãe
         E/G#     A
Sou todo teu, Maria
         C#m B      E
Sou todo teu minha mãe
00:00 / 00:00
Outros vídeos desta música
Repetir
Outros vídeos desta música
Compositor não encontrado.
Colaboração e revisão:
302.649 exibições
    • ½ Tom
    • A
    • Bb
    • B
    • C
    • Db
    • D
    • Eb
    • E
    • F
    • F#
    • G
    • Ab
  • Adicionar à lista

    0 comentários

    Ver todos os comentários

    Entre para oCifra Club PRO

    Tenha acesso a benefícios exclusivos no App e no Site

    • Chega de anúncios

    • Prioridade de compra em lançamentos

    • Mais recursos no app do Afinador

    • Atendimento Prioritário

    • Descontos nos produtos Cifra Club

    • Ajude a produzir mais conteúdo

    00:00 / 00:00

    Cifra Club Pro

    Aproveite o Cifra Club com benefícios exclusivos e sem anúncios
    Cifra Club Pro
    Aproveite o Cifra Club com benefícios exclusivos e sem anúncios
    OK