Cifra Club

Hoje Livre Sou

Ministério Adoração e Vida

Cifra: Principal (violão e guitarra)
tom: E
[Intro]

[Riff 1]     

E|-------------------------------------------------------------|
B|-----------------10-9---------------12--10-9-----------------|
G|-----9-11-11/13---------9/11--9p11------------9------9-8-9---|
D|---9--------------------------------------------9p11---------|
A|-------------------------------------------------------------|
E|-------------------------------------------------------------|

E         B/D#    C#m              A9  E/G#     B9
Presença forte em mim, eu posso dizer  habitas aqui
E         B/D#    C#m           A9       E/G#           B9
Porque escravo eu fui e hoje eu sou mais livre aos teus pés

   G#m      A9          B/D#       E
Sentido na vida a minh'alma encontrou
    G#m      A9        B9         E
Tua mão poderosa veio e me levantou
 G#m      A9   G#m   A9
Agora eu posso declarar
     C#m B9  E
Hoje livre sou
                   C#m         A9   E
Tenho sede da tua graça, cada dia  mais
                          C#m           A9    B9
Sou mais forte e vou mais longe quando aqui estás
       C#m       F#m    E/G#      A9
Com palavras de amor te adoro, Senhor
    C#m B9  E
Hoje livre sou

                    C#m            A9   E
Meu tesouro, minha herança, meu supremo Bem
                   C#m            A9    B9
Nem tribulações nem dor podem nos separar
      C#m       F#m         E/G#      A9
E jamais irão romper o que o amor selou
     C#m B9  E
Hoje livre sou

[Riff 2]

         E                C#m7  A9                 E
E|-------------------7--7--9--9--7------12----12----12----12-----|
B|--9--10--9--7--5--------------------12----12----12---12--------|
G|---------------------------------------------------------------|
D|---------------------------------------------------------------|
A|---------------------------------------------------------------|
E|---------------------------------------------------------------|

                               C#m               A9           B9     A9 G#m
E|--14--16--17--16--14--12--19--19------11--12--14--16--17--16--14--16--11--|
B|----------------------------------14--------------------------------------|
G|--------------------------------------------------------------------------|
D|--------------------------------------------------------------------------|
A|--------------------------------------------------------------------------|
E|--------------------------------------------------------------------------|

  G#m      A9          B9         E
Sentido na vida a minh'alma encontrou
    G#m      A9        B9         E
Tua mão poderosa veio e me levantou
 G#m      A9   G#m   A9
Agora eu posso declarar
     C#m B9  E
Hoje livre sou
                   C#m         A9   E
Tenho sede da tua graça, cada dia  mais
                          C#m           A9    B9
Sou mais forte e vou mais longe quando aqui estás
       C#m       F#m    E/G#      A9
Com palavras de amor te adoro, Senhor
    C#m B9  F#
Hoje livre sou

                    D#m            B9   F#
Meu tesouro, minha herança, meu supremo bem
                   D#m            B9    C#9
Nem tribulações nem dor podem nos separar
      D#m        G#m         F#/A#    B9
E jamais irão romper o que o amor selou
     D#m C#9  F#
Hoje livre sou
        D#m            B9   F#
Tenho sede da tua graça, cada dia  mais
      D#m            B9    C#9
Sou mais forte e vou mais longe quando aqui estás
       D#m        G#m         F#/A#    B9
Com palavras de amor te adoro, Senhor
     D#m C#9  F#
Hoje livre sou

                    D#m            B9   F#
Meu tesouro, minha herança, meu supremo bem
                   D#m            B9    C#9
Nem tribulações nem dor podem nos separar
      D#m        G#m         F#/A#    B9
E jamais irão romper o que o amor selou
     C#9    E  B/D#      C#4 C#  F#
Hoje livre sou      hoje livre sou
00:00 / 00:00
Outros vídeos desta música
Repetir
Outros vídeos desta música
Composição de Rodrigo Pires / Walmir Alencar
647.756 exibições
    • ½ Tom
    • A
    • Bb
    • B
    • C
    • Db
    • D
    • Eb
    • E
    • F
    • F#
    • G
    • Ab
  • Adicionar à lista

    0 comentários

    Ver todos os comentários

    Entre para oCifra Club PRO

    Tenha acesso a benefícios exclusivos no App e no Site

    • Chega de anúncios

    • Prioridade de compra em lançamentos

    • Mais recursos no app do Afinador

    • Atendimento Prioritário

    • Descontos nos produtos Cifra Club

    • Ajude a produzir mais conteúdo

    00:00 / 00:00

    Cifra Club Pro

    Aproveite o Cifra Club com benefícios exclusivos e sem anúncios
    Cifra Club Pro
    Aproveite o Cifra Club com benefícios exclusivos e sem anúncios
    OK