Cifra Club

Noites Traiçoeiras

Anjos de Resgate

Cifra: Principal (violão e guitarra)
Selo Cifra Club: esta cifra foi revisada para atender aos critérios oficiais da nossa Equipe de Qualidade.
tom: G
[Intro] G  Bm  C9  D9  
        C9  Am  D  G  D2

[Primeira Parte]

 G                      Bm
Deus está aqui nesse momento
        C9       D            G  D
Sua presença é real em meu viver
    G                           Bm
Entregue a sua vida e seus problemas
          C9     
Fale com Deus
        D         G  D/F#  C9
Ele vai ajudar você

[Pré-Refrão]

                  Am
Deus te trouxe aqui
          D              G    D/F#  C9
Para aliviar o seu sofrimento
                  Am
É Ele o autor da fé
                 D
Do princípio ao fim
                  G     G7
Em todos seus tormentos

[Refrão]

             F              D/F#
E ainda se vier noite traiçoeira
                  G
Se a cruz pesada for
                  Em7
Cristo estará contigo
               F  
O mundo pode até
   Am          D/F#  Em7  
Fazer você chorar
     D               G    G7
Mas Deus te quer sorrindo

         G#º Am  G           D/F#  Em7
E ainda se vier noites traiçoeiras
       D          Bm    
Se a cruz pesada for
                  Em7
Cristo estará contigo
         D/F#  G  F  
O mundo pode   a_té
   Am          D/F#  Em7
Fazer você chorar
     D               G    Eb7M  D2
Mas Deus te quer sorrindo

[Segunda Parte]

 G                       Bm
Seja qual for o seu problema
          C9           D         G  D
Fale com Deus, ele vai ajudar você
  G                   Bm
Após a dor vem a alegria
           C9      
Deus é o amor
          D          G  D/F#  C9
E não te deixará sofrer

[Pré-Refrão]

                  Am
Deus te trouxe aqui
          D              G    D/F#  C9
Para aliviar o seu sofrimento
                  Am
É Ele o autor da fé
                 D
Do princípio ao fim
                  G     G7
Em todos seus tormentos

[Refrão]

             F              D/F#
E ainda se vier noite traiçoeira
                  G
Se a cruz pesada for
                  Em7
Cristo estará contigo
               F  
O mundo pode até
   Am          D/F#  Em7  
Fazer você chorar
     D               G     G7
Mas Deus te quer sorrindo

         G#º Am  G           D/F#  Em7
E ainda se vier noites traiçoeiras
       D          Bm    
Se a cruz pesada for
                  Em7
Cristo estará contigo
         D/F#  G  F 
O mundo pode   a_té
   Am          D/F#  Em7
Fazer você chorar
     D               G    
Mas Deus te quer sorrindo

[Solo] G6(9)  D/F#  Bm  C9  D2 

[Tab - Solo]

Parte 1 de 4
E|------------------------------------------|
B|-10b12---12r10-8-10~\---------------------|
G|-----------------------9-9~---------------|
D|------------------------------------------|
A|------------------------------------------|
E|------------------------------------------|

Parte 2 de 4
E|-10b12~---b12-b12r10-9-10~\---------------|
B|----------------------------10-10---------|
G|------------------------------------------|
D|------------------------------------------|
A|------------------------------------------|
E|------------------------------------------|

Parte 3 de 4
E|------------------------------------------|
B|-----7-8-7h8p7-------7-8-7-8-7-8/10~------|
G|-7-9-----------9~--7----------------------|
D|------------------------------------------|
A|------------------------------------------|
E|------------------------------------------|

Parte 4 de 4
E|-10-8-7~---7h8p7-5~---5h7p5-3~--2---------|
B|----------------------------------5-3~----|
G|------------------------------------------|
D|------------------------------------------|
A|------------------------------------------|
E|------------------------------------------|

                     G    Bm  C9 
Mas Deus te quer sorrindo
     D               G    Bm  C9  
Mas Deus te quer sorrindo
     D                  Bb7M 
Mas Deus te quer sorrindo

[Final] Am  D  G
Outros vídeos desta música
1.668.070 exibições
  • Simplificar cifra
    • ½ Tom
    • A
    • Bb
    • B
    • C
    • Db
    • D
    • Eb
    • E
    • F
    • F#
    • G
    • Ab
  • Adicionar à lista

Afinação da cifra

Afinador online

    0 comentários

    Ver todos os comentários

    Entre para o Cifra Club PRO

    Tenha acesso a benefícios exclusivos no App e no Site

    • Chega de anúncios

    • Mais recursos no app do Afinador

    • Atendimento Prioritário

    • Aumente seu limite de lista

    • Ajude a produzir mais conteúdo

    Cifra Club Pro

    Aproveite o Cifra Club com benefícios exclusivos e sem anúncios
    Cifra Club Pro
    Aproveite o Cifra Club com benefícios exclusivos e sem anúncios
    OK