Cifra Club

Foi Por Você

Anjos de Resgate

Cifra: Principal
exibições 344.694
Tom: G
[Intro]  C G  G/F  C/E  Cm7/Eb  G/D  Em7  Am7  D4  C  G
         G/F  C/E  Cm7/Eb  G/D  Em7  Am7  C  G   D

   G              D/F#     Em7
Encontrei-me com Jesus no jardim
       G           D/F#    Em7
Nunca vi nada tão lindo assim
        Am          Am7/G       D/F#
Minhas dores entreguei em suas mãos
   Am        Am7/G       D/F#  C/D
E Jesus foi falando pra mim
      G        D/F#    Em7
"Das feridas que eu recebi
     G      D/F#        Em7
Não saíram sangue, nem dor
        Am          Am7/G     D/F#
Foi por isso que o mal eu venci
        Am       Am7/G   D/F#
Porque delas só saía     amor
              G    D9/F#
Foi sempre o meu amor
     G
Foi por você
              G/F                     C/E
Que eu me deixei ser tão chagado e ferido
          Cm7                 G
Por isso sinta-se   amado e querido
          Em7                Am7    C/D
Pois é o meu amor que cura sua dor, ououoh
     G
Foi por você
          G7/F                      C/E
Que, na cruz,  meu sangue foi derramado
          Cm7               G/D
Por isso sinta-se   querido e amado
          Em7                   Am7
Pois é o meu amor que cura sua dor
              C   G/B  Bb  F  Ab  Eb D7/11 D7
que cura sua dor”
        G     D/F#       Em7
Então, Jesus pediu-me assim
        G              D/F#      Em7  ( Em  Em/F#  Em/G  Em/B )
Que as mágoas que estivessem em mim
     Am        Am7/G       D/F#
Que delas não saísse mais dor
             Am        Am7/G  D/F#
De hoje em diante, só saísse  amor
          G        D9/F#
Que seja sempre assim
     G
Foi por você
              G/F                     C/E
Que eu me deixei ser tão chagado e ferido
          Cm7                 G
Por isso sinta-se   amado e querido
          Em7                   Am7  C/D
Pois é o meu amor que cura sua dor,  ououoh
     G
Foi por você
          G7/F                      C/E
Que, na cruz,  meu sangue foi derramado
          Cm7               G/D
Por isso sinta-se   querido e amado
          Em7                   Am7
Pois é o meu amor que cura sua dor
              C     G/B
Que cura sua dor”

[Intro]

E|-10/12-15-10----------10--10-10-------------------------------------------|
B|-------------12-12-13-----------13-12-13~~--10-10-12-13--13-13-12-10-12~~-|
G|--------------------------------------------------------------------------|
D|--------------------------------------------------------------------------|
A|--------------------------------------------------------------------------|
E|--------------------------------------------------------------------------|

E|------------------8-10-------------------------------|
B|-8-8-10-12--12-12------10~~--10-8-7-8/10~~-8~~-------|
G|-----------------------------------------------------|
D|-----------------------------------------------------|
A|-----------------------------------------------------|
E|-----------------------------------------------------|

[Refrão]

1ª Parte

E|-10/12-12-10-10----------10--10-10--------------------------------------------|
B|----------------12-12-13-----------13-12-13~~--10-10-12-13--13-13-12-10-12~~--|
G|------------------------------------------------------------------------------|
D|------------------------------------------------------------------------------|
A|------------------------------------------------------------------------------|
E|------------------------------------------------------------------------------|

E|------------------8-10--------------------------------------------------------|
B|-8-8-10-12--12-12------10~~---------------------------------------------------|
G|------------------------------------------------------------------------------|
D|------------------------------------------------------------------------------|
A|------------------------------------------------------------------------------|
E|------------------------------------------------------------------------------|

2ª Parte
E|-10/12-12-10-10----------10--10-10--------------------------------------------|
B|----------------12-12-13-----------13-12-13~~--10-10-12-13--13-13-12-10-12~~--|
G|------------------------------------------------------------------------------|
D|------------------------------------------------------------------------------|
A|------------------------------------------------------------------------------|
E|------------------------------------------------------------------------------|

E|------------------------------------------------------------------------------|
B|-8-8-10-12--12-12-10-8-10~~--10-8-7-8/10~~-8~~--------------------------------|
G|------------------------------------------------------------------------------|
D|------------------------------------------------------------------------------|
A|------------------------------------------------------------------------------|
E|------------------------------------------------------------------------------|

[Final]

E|------------------------------------------------|
B|-8-8-10-12--12-10-8-7----8~~--------------------|
G|------------------------------------------------|
D|------------------------------------------------|
A|------------------------------------------------|
E|------------------------------------------------|

     Am7               C/D      G
É o meu amor      que cura sua dor
Acordes para:

    0 comentários

      mostrar mais comentários

      Conseguiu tocar?

      9tocaram0ainda não

      Grave um vídeo tocando Foi Por Você e mande pra gente!

      00:00 / 00:00
      outros vídeos desta música
      repetirqualidadeautomática
      Outro vídeos desta música
        00:00 / 00:00
        automática
        OK