Notificações Amigos pendentes

      Anjos de Resgate

      Foi Por Você

      298.724 exibições
      Tom: G
      Intro: C G  G/F  C/E  Cm7/Eb  G/D  Em7  Am7 D4  C G
             G/F  C/E  Cm7/Eb  G/D  Em7  Am7  C  G   D
      
           G             D/F#      Em7
      Encontrei-me com Jesus no jardim
            G           D/F#    Em7
      Nunca vi nada tão lindo assim
             Am          Am7/G       D/F#
      Minhas dores entreguei em suas mãos
          Am        Am7/G     D/F#  C/D
      E Jesus foi falando pra mim:
             G         D/F#   Em7
      "Das feridas que eu recebi,
            G     D/F#       Em7
      Não saíram sangue, nem dor
              Am         Am7/G     D/F#
      Foi por isso que o mal eu venci
             Am         Am7/G   D/F#
      Porque delas só saía     amor,
                   G        D9/F#
      Foi sempre o meu amor
          G
      Foi por você
                   G/F                     C/E
      Que eu me deixei ser tão chagado e ferido
               Cm7                G
      Por isso sinta-se   amado e querido
               Em7               Am7    C/D
      Pois é o meu amor que cura sua dor,  ououoh
          G
      Foi por você
              G7/F                       C/E
      Que, na cruz,  meu sangue foi derramado
               Cm7               G/D
      Por isso sinta-se   querido e amado
               Em7                   Am7
      Pois é o meu amor que cura sua dor,
                    C   G/B  Bb  F  Ab  Eb D7/11 D7
      que cura sua dor”
               G     D/F#     Em7
      Então, Jesus pediu-me assim
             G              D/F#      Em7 (Em Em/F# Em/G Em/B)
      Que as mágoas que estivessem em mim
          Am          Am7/G     D/F#
      Que delas não saísse mais dor
                   Am         Am7/G  D/F#
      De hoje em diante, só saísse  amor
                 G             D9/F#
      Que seja sempre assim
           G
      Foi por você
                   G/F                     C/E
      Que eu me deixei ser tão chagado e ferido
               Cm7                G
      Por isso sinta-se   amado e querido
               Em7                   Am7    C/D
      Pois é o meu amor que cura sua dor,  ououoh
          G
      Foi por você
              G7/F                       C/E
      Que, na cruz,  meu sangue foi derramado
                Cm7                G/D
      Por isso sinta-se   querido e amado
               Em7                   Am7
      Pois é o meu amor que cura sua dor,
                    C     G/B
      que cura sua dor”
      
      Intro:
      
      
      E|-10/12-15-10----------10--10-10-------------------------------------------|
      B|-------------12-12-13-----------13-12-13~~--10-10-12-13--13-13-12-10-12~~-|
      G|--------------------------------------------------------------------------|
      D|--------------------------------------------------------------------------|
      A|--------------------------------------------------------------------------|
      E|--------------------------------------------------------------------------|
      
      
      E|------------------8-10-------------------------------|
      B|-8-8-10-12--12-12------10~~--10-8-7-8/10~~-8~~-------|
      G|-----------------------------------------------------|
      D|-----------------------------------------------------|
      A|-----------------------------------------------------|
      E|-----------------------------------------------------|
      
      
      Refrão:
      
      1ª Parte
      
      E|-10/12-12-10-10----------10--10-10--------------------------------------------|
      B|----------------12-12-13-----------13-12-13~~--10-10-12-13--13-13-12-10-12~~--|
      G|------------------------------------------------------------------------------|
      D|------------------------------------------------------------------------------|
      A|------------------------------------------------------------------------------|
      E|------------------------------------------------------------------------------|
      
      
      E|------------------8-10-------------|
      B|-8-8-10-12--12-12------10~~--------|
      G|-----------------------------------|
      D|-----------------------------------|
      A|-----------------------------------|
      E|-----------------------------------|
      
      
      2ª Parte
      
      E|-10/12-12-10-10----------10--10-10--------------------------------------------|
      B|----------------12-12-13-----------13-12-13~~--10-10-12-13--13-13-12-10-12~~--|
      G|------------------------------------------------------------------------------|
      D|------------------------------------------------------------------------------|
      A|------------------------------------------------------------------------------|
      E|------------------------------------------------------------------------------|
      
      
      E|------------------------------------------------|
      B|-8-8-10-12--12-12-10-8-10~~--10-8-7-8/10~~-8~~--|
      G|------------------------------------------------|
      D|------------------------------------------------|
      A|------------------------------------------------|
      E|------------------------------------------------|
      
      
      Final:
      
      
      E|------------------------------|
      B|-8-8-10-12--12-10-8-7----8~~--|
      G|------------------------------|
      D|------------------------------|
      A|------------------------------|
      E|------------------------------|
      
      
          Am7               C/D      G
      É o meu amor      que cura sua dor”
        Composição: Dalvimar GalloColaboração e revisão:
        • Ranieri de França Freire
        • rafinhagjng
        • Anna
        • Maurício Nunes
        • +4

        Comentários 3

        140 .
        • Clovis Goes Clovis Goes: Em 06/06/2012 17:26

          Olá!! Confiram aqui no Cifra club " Clovis Goes - A lua e o sol". Se gostar espalhe ok, um abraço a todos!

        • DANIIIH DANIIIH: Em 08/02/2011 12:42

          Foi por mim,por vc,por todos nós... Vamos fazer de tudo para que ñ seja em vão...

          • Willian Willian: Em 03/10/2013 15:53

            e isso ai daniih , .

        140 cancelar

        conseguiu tocar?

        • •••

        covers

        Grave um vídeo tocando Foi Por Você e mande pra gente!

        Ex.: http://www.youtube.com/watch?v=0IvSvIwGdwk
        ver covers de outras músicas »
        0:00 / 0:00

        Capítulos

          2 versões de violão dificuldade exibições contribuição e correção
          2 versões de guitarra dificuldade exibições contribuição e correção
          2 versões de cavaco dificuldade exibições contribuição e correção
          2 versões de teclado dificuldade exibições contribuição e correção
          1 versão de baixo exibições contribuição e correção
          play/pausefechar subir/descer velocidade
          6ª corda E5ª corda A4ª corda D3ª corda G2ª corda B1ª corda E
            acordes
            publicidade
            fechar
            ok