Cifra Club

O Primeiro Olhar

Anjos de Resgate

Cifra: Principal (violão e guitarra)
Selo Cifra Club: esta cifra foi revisada para atender aos critérios oficiais da nossa Equipe de Qualidade.
tom: G
[Intro] G  Em  Am  Cm  D

        G                      Cm6/G
Quando nós trocamos o primeiro olhar
       G                     Cm6/G
O meu coração pediu pra se apaixonar
          G                              Cm6/G
Igual ao sol que nasce e só pertence ao dia
           G                      Cm6/G
Quando nasci o meu amor já te pertencia
         G                    Cm6/G
Se não existisses eu te inventaria
    G                         Cm6
As estrelas se eu pudesse te daria
      G/B                           Cm6
Prometi a Deus que ao céu vou te levar
          G/D
E vou gritar pro mundo ouvir que sempre te
D7(4/9)
Amei e vou te amar
          D/G     G                 D/E
Foi no primeiro olhar que eu te consagrei o
 Em
Meu amor
                Am                D         D/C
E nada vai nos separar na alegria ou na dor
         G/B                     Cm7
O mundo não verá o nosso amor se acabar!
      G/D                          Cm7/D
Logo no primeiro olhar Deus nos casou
        G/D                              D7(4/9)
E escreveu seu nome e o meu no azul do  céu!
     D              G
Pra sempre vou te amar

Riff (Base pro Riff G Cm 3x)
E|-------------------------------------------------------------------|
B|-------------------------------------------------------------------|
G|--------7-7-7-7-7--12-12----7-7-8/7/5------------------------------|
D|---7-9-------------------------------------------------------------|
A|-------------------------------------------------------------------|
E|-------------------------------------------------------------------|

E|-------------------------------------------------------------------|
B|---------------------------------8-10h11-10-8h10-8-6---------------|
G|------7-7h8p7-7-7h8p7-7-7h8p7-7-7-------------------8-7-7-7-7-7----|
D|-7-9---------------------------------------------------------------|
A|-------------------------------------------------------------------|
E|-------------------------------------------------------------------|

E|---------------------7/10-8-6-5-3/5--------------------------------|
B|-------------------------------------------------------------------|
G|----7-7/8/7-5------------------------------------------------------|
D|-------------------------------------------------------------------|
A|-------------------------------------------------------------------|
E|-------------------------------------------------------------------|

Se não existisses

Ao final ela modula para A, só preparar no E e depois traspor o que faltar
Outros vídeos desta música
403.405 exibições
  • Simplificar cifra
    • ½ Tom
    • A
    • Bb
    • B
    • C
    • Db
    • D
    • Eb
    • E
    • F
    • F#
    • G
    • Ab
  • Adicionar à lista

Afinação da cifra

Afinador online

    0 comentários

    Ver todos os comentários

    Entre para o Cifra Club PRO

    Tenha acesso a benefícios exclusivos no App e no Site

    • Chega de anúncios

    • Mais recursos no app do Afinador

    • Atendimento Prioritário

    • Aumente seu limite de lista

    • Ajude a produzir mais conteúdo

    Cifra Club Pro

    Aproveite o Cifra Club com benefícios exclusivos e sem anúncios
    Cifra Club Pro
    Aproveite o Cifra Club com benefícios exclusivos e sem anúncios
    OK