Cifra Club

O Primeiro Olhar

Anjos de Resgate

Cifra: Principal
exibições 244.707
Tom: A
[Intro]  D/E  A7+  E/F#  F#m  Bm  Dm6  E

        A                      Dm/A
Quando nós trocamos o primeiro olhar
       A                     Dm/A
O meu coração pediu pra se apaixonar
          A                              Dm/A
Igual ao sol que nasce e só pertence ao dia
           A                      Dm/A
Quando nasci o meu amor já te pertencia
         A                    Dm/A
Se não existisses eu te inventaria
   F#m                      Dm/F
As estrelas se eu pudesse te daria
    C#m                          Dm
Prometi a Deus que ao céu vou te levar
          A/E                              E
E vou gritar pro mundo ouvir que sempre te amei e vou te amar
           A                         F#m
Foi no primeiro olhar que eu te consagrei o meu amor
               Bm                 E
E nada vai nos separar na alegria ou na dor
         C#m                     Dm
O mundo não verá o nosso amor se acabar!
      A/E                          Dm/E
Logo no primeiro olhar Deus nos casou
        A/E                             D/E                    A
E escreveu seu nome e o meu no azul do  céu! Pra sempre vou te amar

E|-------------------------------------------------------------------|
B|-------------------------------------------------------------------|
G|--------7-7-7-7-7--12-12----7-7-5/7/5------------------------------|
D|---7-9-------------------------------------------------------------|
A|-------------------------------------------------------------------|
E|-------------------------------------------------------------------|

E|----------------------------------------------------------------------------|
B|-----------------------------------------10-10-10-8/10/8-10-6---------------|
G|------7-7-7/9-7/9/7---7-7->12-12-----------------------------------7-7-7-7-7|
D|-7-9------------------------------------------------------------------------|
A|----------------------------------------------------------------------------|
E|----------------------------------------------------------------------------|

E|---------------------7/10-9-6-3/5----------------------|
B|-------------------------------------------------------|
G|----7-7/8/7-5------------------------------------------|
D|-------------------------------------------------------|
A|-------------------------------------------------------|
E|-------------------------------------------------------|

0 comentários

    mostrar mais comentários

    Conseguiu tocar?

    3tocaram0ainda não

    Grave um vídeo tocando O Primeiro Olhar e mande pra gente!

    00:00 / 00:00
    outros vídeos desta música
    repetirqualidadeautomática
    Outro vídeos desta música
      00:00 / 00:00
      automática
      OK