Cifra Club

Amigos Pela Fé

Anjos de Resgate

Cifra: Principal (violão e guitarra)
tom: G
[Intro]

   G     Em       C9
E|--8-7-----------------------------|
B|------8--8-7------7-8\--1---------|
G|--9-7--------7--9---------2h4-2---|
D|------9--9-7-5--------------------|
A|----------------------------------|
E|----------------------------------|

  D
E|-------5-7-8-5--------------------|
B|-5-7-8----------------------------|
G|----------------------------------|
D|----------------------------------|
A|----------------------------------|
E|----------------------------------|

[Primeira Parte]

G          D/F# Em         D C9
  Quem me da___rá um ombro amigo
            D
Quando eu precisar?
G         D/F# Em         D   C9
  E se eu ca___ir, se eu vacilar
             D
Quem vai me levantar?

    Am              G/B
Sou eu, quem vai ouvir você
          C9                      D
Quando o mundo não puder te entender
     Am                 G/B
Foi Deus, quem te escolheu pra ser
      C9                       D
O melhor amigo que eu pudesse ter

[Refrão]

G    D/F#  Em           D
  Amigo.....os pra sempre
       C            Am         D
Dois amigos que nasceram pela fé
G    D/F#  Em           D
  Amigo.....os pra sempre
      Am            D4(7)
Para sempre amigos sim

Se Deus quiser

[Intro – Variação]

  G       Em     C9        Am     D
E|-8-7------------------------------|
B|-----8--8-7----8-10-12\--5--1h3-1-|
G|-9-7--------7--9-11-12\--5--2h4-2-|
D|-----9--9-7-5---------------------|
A|----------------------------------|
E|----------------------------------|

E|---8-12-7-8-----------------------|
B|-8----------10--------------------|
G|-----------------5/7\5---5--------|
D|-----------------------7---7/9----|
A|----------------------------------|
E|----------------------------------|

[Segunda Parte]

  G  D/F#   Em       D  C9
Quem é que vai  me acolher
            D
Na minha indecisão
 G        D/F# Em      D C9
Se eu me per_der pelo caminho
             D
Quem me dará a mão

     Am               G/B
Foi Deus, quem consagrou 

Você e eu
      C9            
Para sermos bons amigos
            D
Num só coração
    Am           G/B
Por isso eu estarei aqui
        C9      
Quando tudo parecer 
         D
Sem solução

[Ponte]

Bb                     F
   Peço a Deus que te guarde

(Que te guarde, abençoe 
E mostre a sua face)
Bb                D4
   E te dê a sua paz

[Refrão]

G   D/F#  Em            D
  Amigo.....os pra sempre
       C            Am         D
Dois amigos que nasceram pela fé
G   D/F#  Em            D
  Amigo.....os pra sempre
      Am            D4(7)   
Para sempre amigos sim
    G         (D)
Se Deus quiser

G    D/F#  Em           D
  Amigo.....os pra sempre
       C           Am          D
Dois amigos que nasceram pela fé
G   D/F#  Em            D
  Amigo.....os pra sempre
      Am            D4(7)
Para sempre amigos sim

Se Deus quiser

[Final]

  G    Em        D/F#   G
E|-8-7------------12-10--3----------|
B|-----8--8-7------------3----------|
G|-8-7--------7---12-11--4----------|
D|-----9--9-7-5----------5----------|
A|----------------------------------|
E|----------------------------------|
Composição de Dalvimar Gallo
950.150 exibições
    • ½ Tom
    • A
    • Bb
    • B
    • C
    • Db
    • D
    • Eb
    • E
    • F
    • F#
    • G
    • Ab
  • Adicionar à lista

    0 comentários

    Ver todos os comentários
    00:00 / 00:00
    Outros vídeos desta música
    Repetir Qualidade Automático
    Outros vídeos desta música
    00:00 / 00:00
    Automático

    Cifra Club Pro

    Aproveite o Cifra Club com benefícios exclusivos e sem anúncios
    Cifra Club Pro
    Aproveite o Cifra Club com benefícios exclusivos e sem anúncios
    OK